Cifra Club

Symphony Of Destruction

Megadeth

Cifrado: Principal (guitarra y guitarra eléctrica)
Selo Cifra Club: esta cifra foi revisada para atender aos critérios oficiais da nossa Equipe de Qualidade.
tono: Em
[Intro] F5  E5  F5  E5  F5  E5

[Tab - Intro]

          F5 E5  F5  E5        F5  E5
  P.M...                .....
E|-----------------------------------------|
B|-----------------------------------------|
G|-----------------------------------------|
D|-----------------------------------------|
A|--------3p2-2--3p2-2---------3p2-2-------|
E|-1-3-1--1p0-0--1p0-0--1-3-1--1p0-0-------|

[Primeira parte]

[Tab - Primeira Parte]

   F5  E5 F5  E5        F5  E5
   P.M           .....
E|-----------------------------------------|
B|-----------------------------------------|
G|-----------------------------------------|
D|-----------------------------------------| (x3)
A|-3p2-2--3p2-2---------3p2-2--------------|
E|-1p0-0--1p0-0--1-3-1--1p0-0--------------|

(Riff 1)
You take a mortal man
And put him in control
Watch him become a god
Watch peoples heads a'roll

[Segunda parte]

(Riff 2)
A'roll

[Tab - Segunda Parte - Guitarra 1]

E|-----------------------------------------|
B|-----------------------------------------|
G|-----------------------------------------|
D|-----7---6---5---5h7-5-------------------|
A|-----7---6---5---------------------------|
E|-0-0---0---0---0-------------------------|

E|-----------------------------------------|
B|-----------------------------------------|
G|-----------------------------------------|
D|-7---6---5---5h7-5-----------------------| (x5)
A|-7---6---5-------------------------------|
E|---0---0---0-----------------------------|

E|-----------------------------------------|
B|-----------------------------------------|
G|-----------------------------------------|
D|-7---6---5-------------------------------|
A|-7---6---5------5~-----------------------|
E|---0---0---0--0----6-5-4-3-2-1-----------|

[Tab - Segunda Parte - Guitarra 2]

E|-----------------------------------------|
B|-----------------------------------------|
G|-----------------------------------------|
D|-----7---6---5---5h7-5-------------------|
A|-----7---6---5---------------------------|
E|-0-0---0---0---0-------------------------|

E|-----------------------------------------|
B|-----------------------------------------|
G|-------------4h5-4-----------------------|
D|-7---6---5-------------------------------| (x2)
A|-7---6---5-------------------------------|
E|---0---0---0-----------------------------|

E|-----------------------------------------|
B|-------------5h6-5-----------------------|
G|-----------------------------------------|
D|-7---6---5-------------------------------| (x3)
A|-7---6---5-------------------------------|
E|---0---0---0-----------------------------|
                 D5
E|-----------------------------------------|
B|-----------------------------------------|
G|-----------------------------------------|
D|-7---6---5-----7---8-7-6-5-4-3-----------|
A|-7---6---5-----5-------------------------|
E|---0---0---0-0---------------------------|

[Refrão 1]

E5
   Just like the Pied Piper
C5             D5
   Led rats through the streets
E5
   Dance like marionettes
C5                 D5
   Swaying to the Symphony

Of Destruction

[Tab - Refrão 1 - Guitarras 1 e 2]

   E5
E|-----------------------------------------|
B|-----------------------------------------|
G|-----------------------------------------|
D|-----9------8------7------5/6------------|
A|---7------7------7------7-----7----------|
E|-0------0------0------0---------7--------|

   C5            D5
E|-----------------------------------------|
B|-----------------------------------------|
G|-----------------------------------------|
D|-----5------4------7-----5p4-------------|
A|---3------3------7-----5-----5-----------|
E|-0------0------0-----0----------7--------|

   E5
E|-----------------------------------------|
B|-----------------------------------------|
G|-----------------------------------------|
D|-----9------8------7------5/6------------|
A|---7------7------7------7-----7----------|
E|-0------0------0------0---------7--------|

   C5            D5
    P.M              ........
E|-----------------------------------------|
B|-----------------------------------------|
G|-----------------------------------------|
D|-----5------4------7-7-7-7-7-------------|
A|---3------3------5-5-5-5-5-5-------------|
E|-0------0------0-------------------------|
  
  E5
E|-----------------------------------------|
B|-----------------------------------------|
G|-----------------------------------------|
D|-----9-------8-------7-------5/6---------|
A|---7-7-----7-7-----7-7-----7-----7-------|
E|-0---0---0---0---0---0---0---------7-----|

( F5  E5  F5  E5  F5  E5 )

[Tab - Riff 1]

   F5  E5 F5  E5        F5  E5
   P.M           .....
E|-----------------------------------------|
B|-----------------------------------------|
G|-----------------------------------------|
D|-----------------------------------------|
A|-3p2-2--3p2-2---------3p2-2--------------|
E|-1p0-0--1p0-0--1-3-1--1p0-0--------------|

[Primeira Parte]

[Tab - Primeira Parte]

   F5  E5 F5  E5        F5  E5
   P.M           .....
E|-----------------------------------------|
B|-----------------------------------------|
G|-----------------------------------------|
D|-----------------------------------------| (x3)
A|-3p2-2--3p2-2---------3p2-2--------------|
E|-1p0-0--1p0-0--1-3-1--1p0-0--------------|

(Riff 1)
Acting like a robot
Its metal brain corrodes
You try to take its pulse
Before the head explodes

[Segunda Parte]

(Riff 2)
Explodes, explodes

[Refrão 2]

[Tab - Refrão 2 - Guitarras 1 e 2]

   E5
E|-----------------------------------------|
B|-----------------------------------------|
G|-----------------------------------------|
D|-----9------8------7------5/6------------|
A|---7------7------7------7-----7----------|
E|-0------0------0------0---------7--------|

   C5            D5
E|-----------------------------------------|
B|-----------------------------------------|
G|-----------------------------------------|
D|-----5------4------7-----5p4-------------|
A|---3------3------7-----5-----5-----------|
E|-0------0------0-----0----------7--------|

   E5
E|-----------------------------------------|
B|-----------------------------------------|
G|-----------------------------------------|
D|-----9------8------7------5/6------------|
A|---7------7------7------7-----7----------|
E|-0------0------0------0---------7--------|

   C5            D5
    P.M              ........
E|-----------------------------------------|
B|-----------------------------------------|
G|-----------------------------------------|
D|-----5------4------7-7-7-7-7-------------|
A|---3------3------5-5-5-5-5-5-------------|
E|-0------0------0-------------------------|
  
E5
   Just like the Pied Piper
C5             D5
   Led rats through the streets
E5
   Dance like marionettes,
C5                 D5
   Swaying to the Symphony

[Tab - Refrão 2 - Guitarra 1]

   E5
E|-----------------------------------------|
B|-----------------------------------------|
G|-----------------------------------------|
D|-----9------8------7------5/6------------|
A|---7------7------7------7-----7----------|
E|-0------0------0------0---------7--------|

   C5            D5
E|-----------------------------------------|
B|-----------------------------------------|
G|-----------------------------------------|
D|-----5------4------7-----5p4-------------|
A|---3------3------7-----5-----5-----------|
E|-0------0------0-----0----------7--------|

   E5
E|-----------------------------------------|
B|-----------------------------------------|
G|-----------------------------------------|
D|-----9------8------7------5/6------------|
A|---7------7------7------7-----7----------|
E|-0------0------0------0---------7--------|

   C5            D5
E|-----------------------------------------|
B|-----------------------------------------|
G|-----------------------------------------|
D|-----5------4----7-7----5p4--------------|
A|---3------3------5-5--------5------------|
E|-0------0-----0----------------7---------|

 C5              D5
  P.M                 .......
E|-----------------------------------------|
B|-----------------------------------------|
G|-----------------------------------------|
D|-----5------4------7-7-7-7-7-------------|
A|---3------3------5-5-5-5-5-5-------------|
E|-0------0------0-------------------------|

[Tab - Refrão 2 - Guitarra 2]

E|-----------------------------------------|
B|-----------------------------------------|
G|------7-----6-----5------3/4-------------|
D|-----------------------------6-----------|
A|----7-----7------7-----7-------7---------|
E|-0------0------0-----0-------------------|

E|-----------------------------------------|
B|-----------------------------------------|
G|-----------7-----------------------------|
D|---9---7---0--9p7------------------------|
A|------------------9----------------------|
E|-8---8--------------10-------------------|

E|-----------------------------------------|
B|-----------------------------------------|
G|------7-----6-----5------3/4-------------|
D|-----------------------------6-----------|
A|----7-----7------7-----7-------7---------|
E|-0------0------0-----0-------------------|

E|-----------------------------------------|
B|-----------------------------------------|
G|-----------7-----------------------------|
D|---9---7---0--9p7------------------------|
A|------------------9----------------------|
E|-8---8--------------10-------------------|

               D5
 P.M           .......
E|-----------------------------------------|
B|-----------------------------------------|
G|-----------------------------------------|
D|---9---7-----7-7-7-7-7-------------------|
A|-------------5-5-5-5-5-------------------|
E|-8---8-----------------------------------|

E5
   Just like the Pied Piper
C5             D5
   Led rats through the streets
E5
   Dance like marionettes,
C5                 D5
   Swaying to the Symphony
C5                 D5
   Swaying to the Symphony

Of Destruction

[Solo]

[Tab - Base do Solo]

E|-----------------------------------------|
B|-----------------------------------------|
G|-----------------------------------------|
D|-----7---6---5---------------------------| (x16)
A|-----7---6---5---------------------------|
E|-0-0---0---0-----------------------------|

[Tab - Solo]

Parte 1 de 11
E|---------------------------------------------------|
B|---------------------------------------------------|
G|-/9~9-9-9-9--7/9-9-9\7---6~---7b8\3b~--------------|
D|-----------------------9--------------5-7-5-7b9r7b-|
A|---------------------------------------------------|
E|---------------------------------------------------|

E|---------------------------------------------------|
B|---------------------------------------------------|
G|---------------------------------------------------|
D|-7b9r7p5-------------------------------------------|
A|-----------7-5-7-----------------------------------|
E|---------------------------------------------------|

Parte 2 de 11
E|-------------------------8-12----8-12/14p12--------|
B|----------------------10------10-------------------|
G|--------9h11-----9h11------------------------------|
D|-----10-------10-----------------------------------|
A|---------------------------------------------------|
E|---------------------------------------------------|

Parte 3 de 11
E|----12-14--17p14p12----17/20--17h20p17p14----------|
B|-13-----------------13-----------------------17-13-|
G|---------------------------------------------------|
D|---------------------------------------------------|
A|---------------------------------------------------|
E|---------------------------------------------------|

Parte 4 de 11
E|---------------------------------------------------|
B|-12p10----10-12p10----10-15p10----15p10----14p10---|
G|-------12----------12----------12-------12---------|
D|---------------------------------------------------|
A|---------------------------------------------------|
E|---------------------------------------------------|

Parte 5 de 11
E|-12p10----10-12p10----10-15p10----15p10----14p10---|
B|-------12----------12----------12-------12---------|
G|---------------------------------------------------|
D|---------------------------------------------------|
A|---------------------------------------------------|
E|---------------------------------------------------|

Parte 6 de 11
E|-15p10----10--19p15----15--22p19----19-------------|
B|-------12-----------15-----------20----20----------|
G|------------------------------------------19\16----|
D|------------------------------------------------17-|
A|---------------------------------------------------|
E|---------------------------------------------------|

E|---------------------------------------------------|
B|---------------------------------------------------|
G|-19p16---------------------------------------------|
D|-------17------------------------------------------|
A|---------------------------------------------------|
E|---------------------------------------------------|

Parte 7 de 11
E|---------------------------------------------------|
B|-------------------------------------12-13p12------|
G|----------------14b--/15p12----12h15---------------|
D|-12-14-12-11-12-------------14---------------------|
A|---------------------------------------------------|
E|---------------------------------------------------|

Parte 8 de 11
E|----------------------12---------------------------|
B|----------------12h13----13p12---------------------|
G|-15p12----12h15-----------------15p12----12h14h15--|
D|-------14-----------------------------14-----------|
A|---------------------------------------------------|
E|---------------------------------------------------|

Parte 9 de 11
E|----12---------------------------------------------|
B|-12----15p12---------------------------------------|
G|-------------15p14p12----12b~----------------------|
D|----------------------14---------------------------|
A|---------------------------------------------------|
E|---------------------------------------------------|

Parte 10 de 11
E|-12---------------12-------------12----------------|
B|----15-12--15b17-----15-12----------15p12----------|
G|---------------------------14b16----------14b16----|
D|---------------------------------------------------|
A|---------------------------------------------------|
E|---------------------------------------------------|

Parte 11 de 11
E|-12-------------12-------------12------------------|
B|----15p12----------15p12----------15p12-15---------|
G|----------14b16----------14h16----------14h16------|
D|---------------------------------------------------|
A|---------------------------------------------------|
E|---------------------------------------------------|

[Primeira Parte]

[Tab - Primeira Parte]

   F5  E5 F5  E5        F5  E5
   P.M           .....
E|-----------------------------------------|
B|-----------------------------------------|
G|-----------------------------------------|
D|-----------------------------------------| (x3)
A|-3p2-2--3p2-2---------3p2-2--------------|
E|-1p0-0--1p0-0--1-3-1--1p0-0--------------|

(Riff 1)
The earth starts to rumble
World powers fall
A'warring for the heavens
A peaceful man stands tall

[Segunda Parte]

(Riff 2)
Tall

[Refrão 3]

[Tab - Refrão 3 - Guitarra 1]

   E5
E|-----------------------------------------|
B|-----------------------------------------|
G|-----------------------------------------|
D|-----9------8------7------5/6------------|
A|---7------7------7------7-----7----------|
E|-0------0------0------0---------7--------|

   C5            D5
E|-----------------------------------------|
B|-----------------------------------------|
G|-----------------------------------------|
D|-----5------4------7-----5p4-------------|
A|---3------3------7-----5-----5-----------|
E|-0------0------0-----0----------7--------|

   E5
E|-----------------------------------------|
B|-----------------------------------------|
G|-----------------------------------------|
D|-----9------8------7------5/6------------|
A|---7------7------7------7-----7----------|
E|-0------0------0------0---------7--------|

   C5            D5
    P.M              ........
E|-----------------------------------------|
B|-----------------------------------------|
G|-----------------------------------------|
D|-----5------4------7-7-7-7-7-------------|
A|---3------3------5-5-5-5-5-5-------------|
E|-0------0------0-------------------------|

E5
   Just like the Pied Piper
C5             D5
   Led rats through the streets
E5
   Dance like marionettes
C5                 D5
   Swaying to the Symphony

[Tab - Refrão 3 - Guitarra 1]

   E5
E|-----------------------------------------|
B|-----------------------------------------|
G|-----------------------------------------|
D|-----9------8------7------5/6------------|
A|---7------7------7------7-----7----------|
E|-0------0------0------0---------7--------|

   C5            D5
E|-----------------------------------------|
B|-----------------------------------------|
G|-----------------------------------------|
D|-----5------4------7-----5p4-------------|
A|---3------3------7-----5-----5-----------|
E|-0------0------0-----0----------7--------|

   E5
E|-----------------------------------------|
B|-----------------------------------------|
G|-----------------------------------------|
D|-----9------8------7------5/6------------|
A|---7------7------7------7-----7----------|
E|-0------0------0------0---------7--------|

   C5            D5
E|-----------------------------------------|
B|-----------------------------------------|
G|-----------------------------------------|
D|-----5------4----7-7----5p4--------------|
A|---3------3------5-5--------5------------|
E|-0------0-----0----------------7---------|

 C5              D5
  P.M                 .......
E|-----------------------------------------|
B|-----------------------------------------|
G|-----------------------------------------|
D|-----5------4------7-7-7-7-7-------------|
A|---3------3------5-5-5-5-5-5--3p2--2-----|
E|-0------0------0--------------1p0--0-----|

[Tab - Refrão 2 - Guitarra 2]

E|-----------------------------------------|
B|-----------------------------------------|
G|------7-----6-----5------3/4-------------|
D|-----------------------------6-----------|
A|----7-----7------7-----7-------7---------|
E|-0------0------0-----0-------------------|

E|-----------------------------------------|
B|-----------------------------------------|
G|-----------7-----------------------------|
D|---9---7---0--9p7------------------------|
A|------------------9----------------------|
E|-8---8--------------10-------------------|

E|-----------------------------------------|
B|-----------------------------------------|
G|------7-----6-----5------3/4-------------|
D|-----------------------------6-----------|
A|----7-----7------7-----7-------7---------|
E|-0------0------0-----0-------------------|

E|-----------------------------------------|
B|-----------------------------------------|
G|-----------7-----------------------------|
D|---9---7---0--9p7------------------------|
A|------------------9----------------------|
E|-8---8--------------10-------------------|

          D5
   P.M      ....... 
B|-----------------------------------------|
G|-----------------------------------------|
D|-----------------------------------------|
A|---9---7--7-7-7-7-7----------------------|
E|----------5-5-5-5-5--3p2-2---------------|
E|-8---8---------------1p0-0---------------|

E5
   Just like the Pied Piper
C5             D5
   Led rats through the streets
E5
   Dance like marionettes
C5                 D5
   Swaying to the Symphony
C5                 D5
   Swaying to the Symphony of Destruction
Otros videos de esta canción
    53.298 exhibiciones
      • ½ Tono
      • Am
      • Bbm
      • Bm
      • Cm
      • C#m
      • Dm
      • Ebm
      • Em
      • Fm
      • F#m
      • Gm
      • G#m
    • Agregar a la lista

    Afinação da cifra

    Afinador online

      Capítulos
      • Início
      • Tocando a música
      • Acordes da Introdução e da Primeira Parte
      • Tocando Primeira Parte
      • Ensinando Introdução e Primeira Parte
      • Ensinando Segunda Parte
      • Acordes do Refrão
      • Tocando Refrão
      • Ensinando Refrão
      • Tocando Segundo Refrão, Solo e Final
      • Ensinando Base do Solo
      • Ensinando Solo (Parte 1)
      • Ensinando Solo (Parte 2)
      • Ensinando Solo (Parte 3)
      • Ensinando Solo (Parte 4)
      • Ensinando Solo (Parte 5)
      • Ensinando Solo (Parte 6)
      • Ensinando Solo (Parte 7)
      • Ensinando Solo (Parte 8)
      • Ensinando Solo (Parte 9)
      • Ensinando Solo (Parte 10)
      • Ensinando Solo (Parte 11)
      • Ensinando Refrão Final
      • Encerramento
      Ops (: Contenido disponible solo en portugués.
      OK