Cifra Club

Take No Prisoners

Megadeth

Cifrado: Principal (guitarra y guitarra eléctrica)
tono: D
Intro:

e|---------------------|--------------------|
B|---------------------|--------------------|
G|---------------------|--------------------|
D|---------------------|--------------------|
A|---4-4-4-------------|-4-5-4-7-5-4--------|
E|---2-2-2-0-2-0-2-0-2-|-2-3-2-5-3-2--------|

       (Várias vezes até a música começar)
e|-------------------------------------------------|
B|-------------------------------------------------|
G|-------------------------------------------------|
D|-------------------------------------------------|
A|-------------------------------------------------|
E|-0-2-0-2-0-2-0-2-0-2-0-2-0-2-0-2-0-2-0-----------|

             (Fazer 16 vezes)
e|-------------------------------------------------|
B|-------------------------------------------------|
G|----------------5--------------------------------|
D|-4--4-5-4--4-4--5--------------------------------|
A|-4--4-5-4--4-4--3--------------------------------|
E|-2--2-3-2--2-2-----------------------------------|

             (Fazer 4 vezes)
e|-------------------------------------------------|
B|-------------------------------------------------|
G|----------------6--------------------------------|
D|----------------6--------------------------------|
A|----------------4--------------------------------|
E|-4--4-5-4--4-4-----------------------------------|
      
            (Fazer 4 vezes)
e|-------------------------------------------------|
B|-------------------------------------------------|
G|----------------5--------------------------------|
D|-4--4-5-4--4-4--5--------------------------------|
A|-4--4-5-4--4-4--3--------------------------------|
E|-2--2-3-2--2-2-----------------------------------|

(Fazer 4 vezes. A parte q eu fiz da direita tem q faze 1 ou 2 vezes eu acho)
e|-----------------|--------------|
B|-----------------|--------------|
G|-----------------|--------------|
D|-----------------|--0-2-2/3-2-0-|
A|-4-4-4-4-4-4-4---|--0-2-2/3-2-0-|
E|-2-2-2-2-2-2-2---|--------------|

Final:
e|-------------------------------------------------|
B|-------------------------------------------------|
G|----------------5--------------------------------|
D|-4--4-5-4--4-4--5--------------------------------|
A|-4--4-5-4--4-4--3--------------------------------|
E|-2--2-3-2--2-2-----------------------------------|
00:00 / 00:00
Otros videos de esta canción
Repetir
Otros videos de esta canción
Composición de Dave Mustaine
Colaboración y revisión:
  • Danilo Santos
752 vistas
    • ½ Tono
    • A
    • Bb
    • B
    • C
    • Db
    • D
    • Eb
    • E
    • F
    • F#
    • G
    • Ab
  • Agregar a la lista

    0 comentarios

    Ver todos los comentarios

    ¿Lograste tocar?

    1 Tocaron 2 Aún no

    ¡Graba un video tocando Take No Prisoners y envíanoslo!

    00:00 / 00:00
    OK