Cifra Club

The Killing Road

Megadeth

Tab de bajo: Principal
Selo Cifra Club: esta cifra foi revisada para atender aos critérios oficiais da nossa Equipe de Qualidade.
tono: Afinación:
(intro)

G|-------|-------------------|
D|-------|-------------------|
A|-------|--3-3-3-3-2-2-2-2--|
E|--0-0--|-------------------|

(verse)
G|-------------------------------------|-------------------------------------|
D|-------------------------------------|-------------------------------------|
A|-------------------------3-4--3------|--------------------3-3-3-3-2-2-2-2--|
E|--0--0-0-0-0-0-0-0---2-4--------4-3--|--2-2-2-2-2-2-2-2--------------------|		

(chorus)                    (interlude)
G|-------------------||----------------|
D|-------------------||----------------|
A|--7----------------||--/13-13131313--|
E|-----7--5--3--1-0--||----------------|

(interlude)     (to solo)
G|-------|-----------------------------|
D|-------|-----------------------------|
A|-------|--5h8--4h6--3h5--2h4--4-2-1--|
E|--0-0--|-----------------------------|

(solo)
G|------------------------------------------|-------------------------------|
D|------------------------------------------|-------------------------------|
A|------------------------------------------|-------------------------------|
E|--2--2---2-2-2-2-2-2----2--2--2--3--0--0--|--0-0-0-0-0-2-0-0-0-2-0-0-0-2--|

G|-------------------------------------|-------------------------------------|
D|-------------------------------------|-------------------------------------|
A|-------------------------3-4--3------|--------------------3-3-3-3-2-2-2-2--|
E|--0--0-0-0-0-0-0-0---2-4--------4-3--|--2-2-2-2-2-2-2-2--------------------|	

(chorus)
G|-------------------||
D|-------------------||
A|--7----------------||
E|-----7--5--3--1-0--||
Otros videos de esta canción
    308 exhibiciones

    Afinación de cifrado

    Afinador online

    OK