Cifra Club

When

Megadeth

Tablatura: Principal
reproducciones 130
Tono: C
Standard Tuning

Riff 1 acoustic
e|---------0---------------0-------|
B|-------0---0-----------0---0-----|
G|-----5-------5-------5-------5---|
D|---7-----------7---7-----------7-|
A|-0---------------7---------------|
E|---------------------------------|

e|---------0-------------------------|
B|-------0---0-----------------------|
G|-----5-------5-------5-----5-----5-|
D|---7-----------7---7-----7-----7---|
A|-6---------------------------------|
E|-----------------8-----7-----6-----|

Guitar 2 distortion
e|----------------|
B|----------------|
G|----------------|
D|----------------|
A|-10--9--8--7----|
E|--8--7--6--5----|

Riff 2
Guitar 1 acoustic
e|---------------------------------|
B|---------------------------------|
G|-----5-------5-------5-------5---|
D|---7---7---7---7---7---7---7---7-|
A|-0-------7-------6---------------|
E|-------------------------8-------|

Guitar 2 (distortion)
e|-----------|----------|
B|-----------|----------|
G|-----------|----------|
D|-----------|--------7-|
A|-10-9-8-7--|-10-9-8-5-|
E|--8-7-6-5--|--8-7-6---|

Riff 3 acoustic
e|---------------------------------|
B|-----3-------3-------3-------3---|
G|---2---2---2---2---2---2---2---2-|
D|-0-----------------------3-------|
A|---------0-------1---------------|
E|---------------------------------|

e|---------------------------------|
B|-----3-------3-------3-------3---|
G|---2---2---2---2---2---2---2---2-|
D|-0-------------------------------|
A|---------0-------1-------3-------|
E|---------------------------------|

e|---------------------------------|-------------------|
B|-----3-------3-------3-------3---|-----3-------3-----|
G|---2---2---2---2---2---2---2---2-|---2---2---2---2---|
D|-0-----------------------3-------|-0-----------------|
A|---------0-------1---------------|---------0-------1-|
E|---------------------------------|-------------------|

Riff 4
Guitar 1  acoustic
e|---------------------------------|
B|---------------------------------|
G|-----0-------0-------0-------0---|
D|---2---2---2---2---2---2---2---2-|
A|---------2-------1-------0-------|
E|-0-------------------------------|

Guitar 2  distortion
e|-------------------|---------|
B|-------------------|---------|
G|-------------------|---------|
D|-------------------|---------|
A|--5--4--3-------2--|-5--4--3-|
E|--3--2--1-0-0-0-0--|-3--2--1-|

Riff 5  distortion
e|---------------------------------------------------------|
B|---------------------------------------------------------|
G|---------------------------------------------------------|
D|---------------------------------------------------------|
A|-------------------------------------------------5--4--3-|
E|-0-0-0-0-0-0---0-0-0-0-0-0---0-0-0-0-0-0---0-0-0-3--2--1-|

e|----------------------------------|
B|----------------------------------|
G|----------------------------------|
D|----------------------------------|
A|-2----------3~--2~--------/6~-7~--|
E|-0--3~--2~---------3~--2~---------|

Riff 6
e|---------------------------------|
B|---------------------------------|
G|---------------------------------|
D|---------------------------------|
A|---------5/7---------7/8-----7/8-|
E|-0-0-0-0-3/5-0-0-0-0-5/6-0-0-5/6-|

Riff 7
e|-----------------------------------|
B|-----------------------------------|
G|-----------------------------------|
D|---------7/9---------9/10-----9/10-|
A|---------5/7---------7/-8-----7/-8-|
E|-7-7-7-7-----7-7-7-7------7-7------|

Riff 8
e|---------------------|
B|---------------------|
G|---------------------|
D|-9-9-9-9-9---------7-|
A|-7-7-7-7-7-9-8-----5-|
E|-----------7-6-5-3-5-|

e|---------------------------------|
B|---------------------------------|
G|---------------------------------|
D|---------------------------------|
A|---------5/7---------7/8-----7/8-|
E|-0-0-0-0-3/5-0-0-0-0-5/6-0-0-5/6-|
 
                      x3
e|---------------------|-------------------|
B|---------------------|-------------------|
G|---------------------|-------------------|
D|-9-9-9-9-9---------7-|-9-9-9-9-9---------|
A|-7-7-7-7-7-9-8-----5-|-7-7-7-7-7-9-8-7-5-|
E|-----------7-6-5-3-5-|-----------7-6-5-3-|

Riff 9
e|---------------------------------------|
B|---------------------------------------|
G|---------------------------------------|
D|---------------------------------------|
A|---------------------------------------|
E|-000-000---000-000---000-000---000-000-|

e|-----------------------------------------|
B|-----------------------------------------|
G|-----------------------------------------|
D|-----------------------------------------|
A|-----------------------------------------|
E|-777777777777777777-6666666666-5555-3333-|

e|-----------------------------------------|-----|
B|-----------------------------------------|-----|
G|-----------------------------------------|-----|
D|-----------------------------------------|--2--|
A|-----------------------------------5-4-3-|--2--|
E|-000-000---000-000---000-000---000-3-2-1-|--0--|
Acordes para:
    Compositor: Dave MustaineColaboración y revision:
    • felipe costa

    0 comentarios

      mostrar más comentarios

      ¿Conseguiste tocar?

      0tocaron0aún no

      ¡Graba un vídeo tocando When y envianoslo!

      00:00 / 00:00
      outros vídeos desta música
      repetirqualidadeautomática
      Outro vídeos desta música
        00:00 / 00:00
        automática
        OK