Notificações Amigos pendentes

      Megadeth

      When

      119 reproducciones
      Tono: C
      Standard Tuning
      
      Riff 1 acoustic
      
      e|---------0---------------0-------|
      B|-------0---0-----------0---0-----|
      G|-----5-------5-------5-------5---|
      D|---7-----------7---7-----------7-|
      A|-0---------------7---------------|
      E|---------------------------------|
      
      
      e|---------0-------------------------|
      B|-------0---0-----------------------|
      G|-----5-------5-------5-----5-----5-|
      D|---7-----------7---7-----7-----7---|
      A|-6---------------------------------|
      E|-----------------8-----7-----6-----|
      
      
      Guitar 2 distortion
      
      e|----------------|
      B|----------------|
      G|----------------|
      D|----------------|
      A|-10--9--8--7----|
      E|--8--7--6--5----|
      
      
      Riff 2
      Guitar 1 acoustic
      
      e|---------------------------------|
      B|---------------------------------|
      G|-----5-------5-------5-------5---|
      D|---7---7---7---7---7---7---7---7-|
      A|-0-------7-------6---------------|
      E|-------------------------8-------|
      
      
      Guitar 2 (distortion)
      
      e|-----------|----------|
      B|-----------|----------|
      G|-----------|----------|
      D|-----------|--------7-|
      A|-10-9-8-7--|-10-9-8-5-|
      E|--8-7-6-5--|--8-7-6---|
      
      
      Riff 3 acoustic
      
      e|---------------------------------|
      B|-----3-------3-------3-------3---|
      G|---2---2---2---2---2---2---2---2-|
      D|-0-----------------------3-------|
      A|---------0-------1---------------|
      E|---------------------------------|
      
      
      e|---------------------------------|
      B|-----3-------3-------3-------3---|
      G|---2---2---2---2---2---2---2---2-|
      D|-0-------------------------------|
      A|---------0-------1-------3-------|
      E|---------------------------------|
      
      
      e|---------------------------------|-------------------|
      B|-----3-------3-------3-------3---|-----3-------3-----|
      G|---2---2---2---2---2---2---2---2-|---2---2---2---2---|
      D|-0-----------------------3-------|-0-----------------|
      A|---------0-------1---------------|---------0-------1-|
      E|---------------------------------|-------------------|
      
      
      Riff 4
      Guitar 1  acoustic
      
      e|---------------------------------|
      B|---------------------------------|
      G|-----0-------0-------0-------0---|
      D|---2---2---2---2---2---2---2---2-|
      A|---------2-------1-------0-------|
      E|-0-------------------------------|
      
      
      Guitar 2  distortion
      
      e|-------------------|---------|
      B|-------------------|---------|
      G|-------------------|---------|
      D|-------------------|---------|
      A|--5--4--3-------2--|-5--4--3-|
      E|--3--2--1-0-0-0-0--|-3--2--1-|
      
      
      Riff 5  distortion
      
      e|---------------------------------------------------------|
      B|---------------------------------------------------------|
      G|---------------------------------------------------------|
      D|---------------------------------------------------------|
      A|-------------------------------------------------5--4--3-|
      E|-0-0-0-0-0-0---0-0-0-0-0-0---0-0-0-0-0-0---0-0-0-3--2--1-|
      
      
      e|----------------------------------|
      B|----------------------------------|
      G|----------------------------------|
      D|----------------------------------|
      A|-2----------3~--2~--------/6~-7~--|
      E|-0--3~--2~---------3~--2~---------|
      
      
      Riff 6
      
      e|---------------------------------|
      B|---------------------------------|
      G|---------------------------------|
      D|---------------------------------|
      A|---------5/7---------7/8-----7/8-|
      E|-0-0-0-0-3/5-0-0-0-0-5/6-0-0-5/6-|
      
      
      Riff 7
      
      e|-----------------------------------|
      B|-----------------------------------|
      G|-----------------------------------|
      D|---------7/9---------9/10-----9/10-|
      A|---------5/7---------7/-8-----7/-8-|
      E|-7-7-7-7-----7-7-7-7------7-7------|
      
      
      Riff 8
      
      e|---------------------|
      B|---------------------|
      G|---------------------|
      D|-9-9-9-9-9---------7-|
      A|-7-7-7-7-7-9-8-----5-|
      E|-----------7-6-5-3-5-|
      
      
      e|---------------------------------|
      B|---------------------------------|
      G|---------------------------------|
      D|---------------------------------|
      A|---------5/7---------7/8-----7/8-|
      E|-0-0-0-0-3/5-0-0-0-0-5/6-0-0-5/6-|
      
       
                            x3
      
      e|---------------------|-------------------|
      B|---------------------|-------------------|
      G|---------------------|-------------------|
      D|-9-9-9-9-9---------7-|-9-9-9-9-9---------|
      A|-7-7-7-7-7-9-8-----5-|-7-7-7-7-7-9-8-7-5-|
      E|-----------7-6-5-3-5-|-----------7-6-5-3-|
      
      
      Riff 9
      
      e|---------------------------------------|
      B|---------------------------------------|
      G|---------------------------------------|
      D|---------------------------------------|
      A|---------------------------------------|
      E|-000-000---000-000---000-000---000-000-|
      
      
      e|-----------------------------------------|
      B|-----------------------------------------|
      G|-----------------------------------------|
      D|-----------------------------------------|
      A|-----------------------------------------|
      E|-777777777777777777-6666666666-5555-3333-|
      
      
      e|-----------------------------------------|-----|
      B|-----------------------------------------|-----|
      G|-----------------------------------------|-----|
      D|-----------------------------------------|--2--|
      A|-----------------------------------5-4-3-|--2--|
      E|-000-000---000-000---000-000---000-3-2-1-|--0--|
      
        Composición: Dave MustaineColaboración y revision:
        • radiosm

        Comentarios 0

        140 .
        140 cancelar

        ¿conseguiste tocar?

        covers

        ¡Grave un vídeo tocando When y envie para nosotros!

        Ex.: http://www.youtube.com/watch?v=0IvSvIwGdwk
        ver cover de otras canciones »
        0:00 / 0:00

        Capitulos

          1 versão de guitarra dificuldad reproducciones contribuición y correción
          1 versão de guitarra eléctrica dificuldad reproducciones contribuición y correción
          1 versão de cavaco dificuldad reproducciones contribuición y correción
          1 versão de teclado dificuldad reproducciones contribuición y correción
          1 versão de contrabajo reproducciones contribuición y correción
          1 versão de Guitar Proformatodownloadscontribuición
          play/pausefechar subir/bajar velocidad
          6ª cuerda E5ª cuerda A4ª cuerda D3ª cuerda G2ª cuerda B1ª cuerda E
            acordes
            publicidad
            cerrar
            ok