Cifra Club

Dolla Sign Slime

Megan Thee Stallion

Cifrado: Principal (guitarra y guitarra eléctrica)
Selo Cifra Club: esta cifra foi revisada para atender aos critérios oficiais da nossa Equipe de Qualidade.
tono: F
E|----------------------------------|
B|-3--5--6--5--3--------------------|
G|----------------2--------0--2--3--|
D|-------------------3--0-----------|
A|----------------------------------|
E|----------------------------------|

E|----------------------------------|
B|--------0--2----------------------|
G|--0--2--------2-------------------|
D|----------------------------------|
A|----------------------------------|
E|----------------------------------|
Otros videos de esta canción
    1 exhibiciones
      • ½ Tono
      • A
      • Bb
      • B
      • C
      • Db
      • D
      • Eb
      • E
      • F
      • F#
      • G
      • Ab
    • Agregar a la lista

    Afinação da cifra

    Afinador online

      Ops (: Contenido disponible solo en portugués.
      OK