Cifra Club

Like I'm Gonna Lose You

Meghan Trainor

Tablatura: Principal (guitarra)
Tom: G
Primeira Parte:

Parte 1 de 8
          G     G/C  G
E|-------------------------------------------|
B|-------------1----0------------------------|
G|----------x--0----0--x---------------------|
D|-----0----x--2----0--x---------------------|
A|-0h2------x----------x---------------------|
E|-------3--x--3----3--x---------------------|

Parte 2 de 8
         Bm7(11)
E|-------------------------------------------|
B|------3--x----3--x-------------------------|
G|------2--x----2--x-------------------------|
D|------0--x----0--x-------------------------|
A|-0-1--2--x--2-2--x-------------------------|
E|-------------------------------------------|

Parte 3 de 8
         Em
E|-------------------------------------------|
B|------0--x-----0--x------------------------|
G|------0--x-----0--x------------------------|
D|------2--x-----2--x------------------------|
A|---------x--------x--0---------------------|
E|-2-1--0-----0--0---------------------------|

Parte 4 de 8
    C     Bm9(13)   Am7    D7
E|-------------------------------------------|
B|-1-----1---------1----------1--------------|
G|-0-----0---------0--------2----------------|
D|---2-----2---------2----0------------------|
A|-3-----2---------0-------------------------|
E|-------------------------------------------|

Parte 5 de 8
          G     G/C  G
E|-------------------------------------------|
B|-------0-----1----0------------------------|
G|-------0--x--0----0--x---------------------|
D|-------0--x--2----0--x---------------------|
A|----------x----------x---------------------|
E|-------3--x--3----3--x---------------------|

Parte 6 de 8
         Bm7(11)
E|-------------------------------------------|
B|------3--x----3--x-------------------------|
G|------2--x----2--x-------------------------|
D|------0--x----0--x-------------------------|
A|-0-1--2--x----2--x-------------------------|
E|------------2------------------------------|

Parte 7 de 8
         Em
E|-------------------------------------------|
B|------0--x-----0--0------------------------|
G|------0--x-----0--0------------------------|
D|------2--x-----2--0------------------------|
A|---------x---------------------------------|
E|-2-1--0-----0--0--0------------------------|

Parte 7 de 8 - Variação
         Em
E|------------0-------------0----------------|
B|----------0---0---------0---0--------------|
G|--------0-------0-----0-------0------------|
D|-------------------------------------------|
A|------------x-------------x----------------|
E|-2-1--0-----x------0------x----------------|

Parte 8 de 8
    C     Bm9(13)   Am7    D7
E|-------------------------------------------|
B|-----1-----1--------1-------1--------------|
G|-----0-----0--------0-----2----------------|
D|---2-----0--------2-----0------------------|
A|-3-----2--------0--------------------------|
E|-------------------------------------------|


G            G/C   G
  I found myself dreaming
Bm7(11)
   In silver and gold
Em
   Like a scene from a movie that 
C       Bm9(13)  Am7    D7
Every broken    heart knows
G                 G/C  G
  We were walking on  moonlight
Bm7(11)
   And you pulled me close
Em
   Split second and you disappeared
         C     Bm9(13)  Am7    D7
And then I was all    alo_____ne

 G               G/C
Woke up in tears 
 G
With you by my side
  Bm7(11)                       Em
Breath of relief and I realized
             
No, we're not 
  C         Bm9(13)  Am7  D7
Promised tomorrow

Refrão:
Parte 1 de 4
    G            C/G  G
E|-------------------------------------------|
B|-0-------0----1----0------0----------------|
G|-0-----0-0-0-------0----0-0----------------|
D|-0---0--------2----0--0--------------------|
A|---------x----------------x----------------|
E|-3-------x----3----3------x----------------|

Parte 2 de 4
        Bm7(11)
E|-----------0----------------0--------------|
B|-----3-----3-3--3----3------3--------------|
G|-----2---2---2--2----2----2----------------|
D|-------0----------------0------------------|
A|-0-1-2-----x---------2------x--------------|
E|-----------x----2-----------x--------------|

Parte 3 de 4
         Em
E|------------0-------------0----------------|
B|------0---0---0----0----0---0--------------|
G|------0-0-------0--0--0-------0------------|
D|------2------------2-----------------------|
A|------------x-------------x----------------|
E|-2-1--0-----x------0------x----------------|

Parte 4 de 4
    C     Bm9(13)   Am7    D7
E|-------------------------------------------|
B|-----1-----1--------1-------1--------------|
G|-----0-----0--------0-----2----------------|
D|---2-----0--------2-----0------------------|
A|-3-----2--------0--------------------------|
E|-------------------------------------------|

              G       G/C  G
So I'm gonna love you 
                Bm7(11)
Like I'm gonna lose you
           Em
I'm gonna hold you 
                     C  Bm9(13)  Am7
Like I'm saying goodbye
    D7        G      G/C
Wherever we standing
                       Bm7(11)
I won't take you for granted
                     Em
Cause we'll never know when
                       C   Bm9(13)  Am7
When we’ll run out of time
   D7         G       G/C  G
So I'm gonna love you
                Bm7(11)
Like I'm gonna lose you
              Em
So I'm gonna love you
                C  Bm9(13) Am7   D7
Like I'm gonna lo_____se  yo_____u

Repete a Primeira Parte:

G                 G/C  G
  In the blink of an   eye
Bm7(11)
   Just a whispered of smoke
Em
   You could lose everything
      C   Bm9(13)    Am7  D7
The truth is you'll ne___ver known
G               G/C  G
  So I’ll kiss you  longer, baby
Bm7(11)
   Any chance that I get
Em
  I’ll make the most of the minutes 
    C         Bm9(13)  Am7  D7
In love with no    regre_____ts
 G                             G/C  G
Let's take our time, say what we   want
Bm7(11)                          Em
Use what we got before it's all gone
Cause no
            C         Bm9(13)  Am7  D7
We're not promised tomorrow

Repete o Refrão:

              G       G/C  G
So I'm gonna love you 
                Bm7(11)
Like I'm gonna lose you
           Em
I'm gonna hold you 
                     C  Bm9(13)  Am7
Like I'm saying goodbye
    D7        G      G/C
Wherever we standing
                       Bm7(11)
I won't take you for granted
                     Em
'Cause we'll never know when
                       C   Bm9(13)  Am7
When we’ll run out of time
   D7         G       G/C  G
So I'm gonna love you
                Bm7(11)
Like I'm gonna lose you
              Em
So I'm gonna love you
                C  Bm9(13) Am7   D7
Like I'm gonna lo_____se  yo_____u

Solo:
Parte 1 de 3
E|-----------------------------------------------------|
B|-1h3-3-3--1--1h3---1h3-3-3--1--1h3-------------------|
G|-2h4-4-4--2--2h4---2h4-4-4--2--2h4-------------------|
D|-----------------------------------------------------|
A|-----------------------------------------------------|
E|-----------------------------------------------------|

Parte 2 de 3
E|-----------------------------------------------------|
B|------5-5-5--3--3h5----------------------------------|
G|-----------------------------------------------------|
D|-4/5-—5-5-5--4--4/5----------------------------------|
A|-----------------------------------------------------|
E|-----------------------------------------------------|

Parte 3 de 3
E|--------3-5/7--5--3--3-------------------------------|
B|------3--------------3h5-3---------------------------|
G|-2/4------5/7--5--4---------4\2-0--------------------|
D|----------------------------------2-0----------------|
A|-----------------------------------------------------|
E|-----------------------------------------------------|


Refrão Final:

              G       G/C  G
So I'm gonna love you 
                Bm7(11)
Like I'm gonna lose you
           Em
I'm gonna hold you 
                     C  Bm9(13)  Am7
Like I'm saying goodbye
    D7        G      G/C
Wherever we standing
                       Bm7(11)
I won't take you for granted
                     Em
'Cause we'll never know when
                       C   Bm9(13)  Am7
When we’ll run out of time
   D7         G       G/C  G
So I'm gonna love you
                Bm7(11)
Like I'm gonna lose you
              Em
So I'm gonna love you
                C  Bm9(13) Am7   D7  G
Like I'm gonna lo_____se  yo_____u
reproducciones 4.334
Acordes para:
    Composição: Meghan Trainor Colaboración y revision:
    • fabrizio fabbri
    • Ana Alessi

    0 comentarios

    mostrar más comentarios

    ¿Conseguiste tocar?

    13 tocaron 2 aún no

    ¡Graba un vídeo tocando Like I'm Gonna Lose You y envianoslo!

    00:00 / 00:00
    outros vídeos desta música
    repetir qualidade Automático
    Outros vídeos desta música
    00:00 / 00:00
    Automático
    Capítulos
    • Tocando a música
    • Dicas Iniciais / Equipamentos
    • Acordes da música
    • Tocando Primeira Parte
    • Primeira Parte - Parte 1 de 8
    • Primeira Parte - Parte 2 de 8
    • Primeira Parte - Parte 3 de 8
    • Primeira Parte - Parte 4 de 8
    • Primeira Parte - Parte 5 de 8
    • Primeira Parte - Parte 6 de 8
    • Primeira Parte - Parte 7 de 8
    • Primeira Parte - Parte 7 de 8 (Variação)
    • Primeira Parte - Parte 8 de 8
    • Dicas Refrão
    • Tocando Refrão
    • Refrão - Parte 1 de 4
    • Refrão - Parte 2 de 4
    • Refrão - Parte 3 de 4
    • Refrão - Parte 4 de 4
    • Tocando Solo
    • Solo - Parte 1 de 3
    • Solo - Parte 2 de 3
    • Solo - Parte 3 de 3
    • Encerramento
    • Ficha Técnica e Erros de Gravação
    OK