Cifra Club

Llenabas mi alma

Melon Diesel

Cifrado: Principal (guitarra y guitarra eléctrica)
tono: Em
E|------------------------------------------------------------|
B|------------------------------------------------------------|
G|-------------0--0-----0-----2--2-----2-----0--0--0/2/0------|
D|-0--0--0--3--------0-----0--------0-----0---------------3--0|

Intro (2 veces):

Em  Am  Bm7  Am

Em                  Am
Abro mis ojos, sólo puedo ver
Bm7                     Am
Negro el horizonte, azul el ayer
Em                  Am
Las nubes asesinan un rayo de luz
Bm7                     Am7       D      G
La magia se ha marchado porque no estás tú

G           Bm7
Llenabas mi alma
Am7            D
Llenabas mi alma de claridad
G           Bm7
Las luces se apagan
Am7            D         D7      Em
Las luces se apagan si tú no estás

Riff y silbido (2 veces)

Em  Am  Bm  Am

E|---------------------------------------|
B|------3--5-----------------------------|
G|-3/4-------3~--2-------2~--0--4--2--0--|
D|--------------------------------------2|
A|---------------------------------------|
E|---------------------------------------|

Em                     Am
Fotos del mañana en mi corazón
Bm7                     Am
El sol las ha velado, y a ti te borró
Em                     Am
Una sombra negra viene tras de mí
Bm7                     Am7       D      G
Diciéndome al oído lo lejos que estoy de ti

G           Bm7
Llenabas mi alma
Am7            D
Llenabas mi alma de claridad
G           Bm7
Las luces se apagan
Am7            D         D7
Las luces se apagan cuando no estás

G           Bm7
Llenabas mi alma
Am7            D
Llenabas mi alma de claridad
G           Bm7
Las luces se apagan
Am7            D         D7
          Se apagan cuando no estás

G                 B7
Ya no escribo una buena canción
Em              A7
Desde que tú no estás

C              D         D7     Em  Am
Todo es tan absurdo si tú no estás oh no
C              D         D7     Em
Pues todo es absurdo si tú no estás

Riff y silbido (2 veces)

Em  Am  Bm  Am

E|---------------------------------------|
B|------3--5-----------------------------|
G|-3/4-------3~--2-------2~--0--4--2--0--|
D|--------------------------------------2|
A|---------------------------------------|
E|---------------------------------------|

Em          Am7
Llenabas mi alma de claridad
Bm7          Am7
Las luces se apagan cuando no estás.
00:00 / 00:00
Otros videos de esta canción
Repetir
Otros videos de esta canción
Compositor no encontrado.
2 vistas
    • ½ Tono
    • Am
    • Bbm
    • Bm
    • Cm
    • C#m
    • Dm
    • Ebm
    • Em
    • Fm
    • F#m
    • Gm
    • G#m
  • Agregar a la lista

    0 comentarios

    Ver todos los comentarios

    ¿Lograste tocar?

    0 Tocaron 0 Aún no

    ¡Graba un video tocando Llenabas mi alma y envíanoslo!

    00:00 / 00:00
    OK