Cifra Club

Niña del sur

Melon Diesel

Cifrado: Principal (guitarra y guitarra eléctrica)
tono: A
        F#m               A   E   D  F#m
Niña del sur, inimitable tú...

              A             E             F#m
Por la línea vas entre el bien, entre el mal
B|-----------10------------5--------------7-|
          A                E            D
fumando algo que te han pasao en Gibraltar
B|-----------10----------5-----------12-13-12-13-12-13-12-13-12-|


      F#m                A   E   D   F#m
Niña del sur, tan llanita tú...

              A             E             F#m
Por la línea vas entre el bien, entre el mal
B|-----------10------------5--------------7-|
          A                E            D
fumando algo que te han pasao en Gibraltar
B|-----------10----------5-----------12-13-12-13-12-13-12-13-12-|


            E                  F#m
Al sur del sur, entre la multitud,
B|-----------12-9-----------------12/15-10|
             E                F#m
nadie es como tú, al sur del sur.
B|---------------12-9------------12/15-10|
              A              E
Si yo puedo elegir, quiero estar
B|------------14----15--14---12-|
         D
donde estés, tú al sur del sur.
B|-10-12-12--7|

Solo ( F#m A E D F#m )son los del principio

E|---------------------------------------------------------------|
B|-12-14-12-14-12-14-12----12-14-12-14-12-14-12-15-14-12----12/7-|
G|----------------------14-------------------------------14------|

B|-----------------------7/20--|
G|-----------------------------|
D|-----7---9-7------7----------|
A|-7-9---9----9-7-9--9-9-------|

E|---------------------------------------------------------------|
B|-12-14-12-14-12-14-12----12-14-12-14-12-14-12-15-14-12----12---|
G|----------------------14-------------------------------14------|

G|-------------------------------------------|
D|-------------------------------------------|
A|-16-16-16-16-16-16-14-12----12-14-12-------|
E|-------------------------14----------14----|


              A             E             F#m
Por la línea vas entre el bien, entre el mal
B|-----------10------------5--------------7-|---7/17-14
          A                E            D
fumando algo que te han pasao en Gibraltar
B|------10----------------5-----------12-13-12-13-12-13-12-13-12-|

              Bm        D
Nadie es como tú, como tú
             A
Oh! mi niña del sur.
G:|---------18--14-|
00:00 / 00:00
Otros videos de esta canción
Repetir
Otros videos de esta canción
Compositor no encontrado.
4 vistas
    • ½ Tono
    • A
    • Bb
    • B
    • C
    • Db
    • D
    • Eb
    • E
    • F
    • F#
    • G
    • Ab
  • Agregar a la lista

    0 comentarios

    Ver todos los comentarios

    ¿Lograste tocar?

    0 Tocaron 0 Aún no

    ¡Graba un video tocando Niña del sur y envíanoslo!

    00:00 / 00:00
    OK