Cifra Club

In To My Life

Men At Work

Cifrado: Principal (guitarra y guitarra eléctrica)
tono: G
Intro: G  C9

Riff:

E|---------------------------|
B|---8--10--10h12-10-8-7-8---|
G|---------------------------|
D|---------------------------|
A|---------------------------|
E|---------------------------|

E|---------------------------|
B|---8--10--10h12-10-8-7-8---|
G|-------------------------5-|
D|---------------------------|
A|---------------------------|
E|---------------------------|

E|---------------------------|
B|---8--10--10h12-10-8-7-8---|
G|---------------------------|
D|---------------------------|
A|---------------------------|
E|---------------------------|

E|---------------------------------|
B|---8-8h10-8-7-8---15b17-15b17r15-|
G|---------------------------------|
D|---------------------------------|
A|---------------------------------|
E|---------------------------------|

  G                            C9
Carpet stained with my red wine
G                          C9
I've been staring at the fire
G                    C9
I keep looking at the time
               G    C9
I'm waiting on you


G                        C9
I can hear the howling wind
G                       C9
Yes the sound is getting higher
G                       C9
As the night is closing in
                G   C9
I'm waiting on you

C                  C7+ C7
Those big black eyes       wicked smile that you
D                        C9
flash as you walk through my door
          G      C9
Into my life
          G      C9
Into my life
          G      C9    G   C9
Into my life

G                                C9
Won't you come in and sit right down
G                         C9
Here let me pour a Stolichnaya
G                          C9
Why is it when you come around
                G   C9
I'm waiting on you


G                            C9
We drink until we get too tired
G                             C9
Even though you try to dance for me
G                              C9
I can't still  light up your fire
                    G   C9
So I'm waiting on you

C                 C7+  C7
From time to time          I feel so blind and there's
D                      C9
still so much more left to do

          G      C9
Into my life
          G      C9
Into my life
          G      C9    G   C9
Into my life

(G  C9)(4x)

G                      C9
You call me on the telephone
G                         C9
You say that I am always busy
G                      C9
So why am I here all alone
            G   C9
Waiting on you

G                        C9
I pick you up in my white car
G                       C9
I could fall ever so easily
G                       C9
Why you keep me hanging on
               G    C9
I'm waiting on you

       C                     C7+ C7
still      Those big black eyes         wicked smile that you
D                             C9
flash as you walk through my door
          G      C9
Into my life
          G      C9
Into my life
          G      C9    G   C9
Into my life
00:00 / 00:00
Otros videos de esta canción
Repetir
Otros videos de esta canción
Compositor no encontrado.
Colaboración y revisión:
  • AlanLawra SCCP
  • WESLEI Lopes
  • Rafael Danin
248 exhibiciones
    • ½ Tono
    • A
    • Bb
    • B
    • C
    • Db
    • D
    • Eb
    • E
    • F
    • F#
    • G
    • Ab
  • Agregar a la lista
    00:00 / 00:00
    OK