Cifra Club

Quando Eu Te Pegar

Menor

Cifrado: Principal (guitarra y guitarra eléctrica)
tono: F (con acordes en la forma de D) Capotraste en 3ª casa
[Intro] Bm  G  D  A

E|--------------------------------------------------------|
B|-10--8--6---6--6-6-6-6---6----10--8--6---6--6-6-6-6---6-|
G|----------7------------7---------------7------------7---|
D|--------------------------------------------------------|
A|--------------------------------------------------------|
E|--------------------------------------------------------|

E|--------------------------------------------------------|
B|-10--8--6--8--8-8-8-8-8-8-8-8-8-8-8--6-5--5-6-----------|
G|--------------------------------------------------------|
D|--------------------------------------------------------|
A|--------------------------------------------------------|
E|--------------------------------------------------------|

[Primeira Parte]

Bm
Já faz um tempo que a gente marca de se encontrar
G
Eu tô sozinho e você quer vir me provocar
D
Me manda foto se trocando e vídeo me instigando
A
E eu que moro longe fico a imaginar

Bm
Eu já te avisei

Já te aconselhei
G
Melhor mudar esse assunto pra não piorar
D
Pode até falar
A
Sei que uma hora vai rolar

[Refrão]

           Bm
Vai ser perfeito
                             G
Quando eu te pegar daquele jeito

Cê vai querer voltar
          D
Eu sou suspeito pra falar
                       A
Mas é que o serviço é bem feito, é!

           Bm
Vai ser perfeito
                             G
Quando eu te pegar daquele jeito

Cê vai querer voltar
          D
Eu sou suspeito pra falar
                       A
Mas é que o serviço é bem feito, é!

[Solo] Bm  G  D  A

E|--------------------------------------------------------|
B|-10--8--6---6--6-6-6-6---6----10--8--6---6--6-6-6-6---6-|
G|----------7------------7---------------7------------7---|
D|--------------------------------------------------------|
A|--------------------------------------------------------|
E|--------------------------------------------------------|

E|--------------------------------------------------------|
B|-10--8--6--8--8-8-8-8-8-8-8-8-8-8-8--6-5--5-6-----------|
G|--------------------------------------------------------|
D|--------------------------------------------------------|
A|--------------------------------------------------------|
E|--------------------------------------------------------|

[Primeira Parte]

Bm
Já faz um tempo que a gente marca de se encontrar
G
Eu tô sozinho e você quer vir me provocar
D
Me manda foto se trocando e vídeo me instigando
A
E eu que moro longe fico a imaginar

Bm
Eu já te avisei

Já te aconselhei
G
Melhor mudar esse assunto pra não piorar
D
Pode até falar
A
Sei que uma hora vai rolar

[Refrão]

           Bm
Vai ser perfeito
                             G
Quando eu te pegar daquele jeito

Cê vai querer voltar
          D
Eu sou suspeito pra falar
                       A
Mas é que o serviço é bem feito, é!

           Bm
Vai ser perfeito
                             G
Quando eu te pegar daquele jeito

Cê vai querer voltar
          D
Eu sou suspeito pra falar
                       A
Mas é que o serviço é bem feito, é!
           Bm
Vai ser perfeito
                             G
Quando eu te pegar daquele jeito

Cê vai querer voltar
          D
Eu sou suspeito pra falar
                       A
Mas é que o serviço é bem feito, é!

           Bm
Vai ser perfeito
                             G
Quando eu te pegar daquele jeito

Cê vai querer voltar
          D
Eu sou suspeito pra falar
                       A
Mas é que o serviço é bem feito, é!
00:00 / 00:00
Otros videos de esta canción
Repetir
Otros videos de esta canción
Compositor no encontrado.
Colaboración y revisión:
  • Wezer Carvalho
22 vistas
    • ½ Tono
    • A
    • Bb
    • B
    • C
    • Db
    • D
    • Eb
    • E
    • F
    • F#
    • G
    • Ab
  • Agregar a la lista

    0 comentarios

    Ver todos los comentarios

    ¿Lograste tocar?

    1 Tocaron 0 Aún no

    ¡Graba un video tocando Quando Eu Te Pegar y envíanoslo!

    00:00 / 00:00
    OK