Cifra Club

Zona de promesas

Mercedes Sosa

Cifrado: Principal (guitarra y guitarra eléctrica)
tono: Em

Acordes
  G D/F# C* Am F D7/F# D* Em A7 C7 B7 C9 Em7/G D C/G
E|-3--2---0--0--1---2---2--0--0--0--2--3---3----2--3|
B|-3--3---1--1--1---1---3--0--2--1--0--3---3----3--1|
G|-0--2---0--2--2---2---2--0--0--3--2--0---0----2--0|
D|-0--0---2--2--3---0---4--2--2--2--1--2---2----0--2|
A|-2--0---3--0--3---0---5--2--0--3--2--3---2----0--3|
E|-3--2---3--0--1---2---2--0--0--0--0--0---0----0--0|



Intro:

E|-------------------------------------------------------------------------|
B|---12/10-12/10------12/10-12/10------10/12/10----------------------------|
G|----------------------------------------------12-11----------------------|
D|-------------------------------------------------------------------------|
A|-------------------------------------------------------------------------|
E|-------------------------------------------------------------------------|


G     D/F#    G
 Mama sabe bien
    D/F#     C*  D/F# C* D/F#
 Perdi una batalla
G       D/F#   G
 Quiero regresar
 D/F#     C*  D/F# C* D/F#
 Solo a besarla
Am        F
 No esta mal
         D7/F#
 Ser mi dueño otra vez
Am     D*           Em        D     A7
 Ni temer que el rio sangre y calme
    C7       B7     Em    D
 Al contarle mis plegarias

G C9 G C9 Em7/G  D C/G

Estibillo:
G   C9        G
 Tarda en llegar
   C9    Em7/G     D
 Y al final, al final
      C/G
 Hay recompensa

G C9 G C9 Em7/G  D C/G

E|---33---2-----33---2---0---------2222-----------|
B|---33---3-----33---3---1---------3333-----------|
G|---00---2-----00---2---0---------2222-----------|
D|---00---0-----00---0---2---------0000-----------|
A|---22---0-0---22---0-0-3-3-2h0---0000-3-3-2h0---|
E|-3-33-2-2---3-33-2-2----------3--2222---------3-|

E|-2222-/|
B|-3333-/|
G|-2222-/|
D|-0000-/|
A|-0000-/|
E|-2222-/|

(se repite todo los acordes)

 Mama sabe bien
 Pequeña princesa
 Cuando regrese
 Todo quemaba

 No esta mal
 Sumergirme otra vez
 Ni temer que el rio sangre y calme
 Se bucear en silencio

 Estribillo x3

G D/F# G D/F# C

E|--2-2--5-5--7|
B|-3-3--6-6--6|
G|----------7|
 En la zona de promesas
00:00 / 00:00
Otros videos de esta canción
Repetir
Otros videos de esta canción
Composición de Gustavo Cerati
2.092 exhibiciones
    • ½ Tono
    • Am
    • Bbm
    • Bm
    • Cm
    • C#m
    • Dm
    • Ebm
    • Em
    • Fm
    • F#m
    • Gm
    • G#m
  • Agregar a la lista
    00:00 / 00:00
    OK