Cifra Club

Always Wanting You

Merle Haggard

Cifrado: Principal (guitarra y guitarra eléctrica)
tono: G
[Intro] 

E|------------5---5/7-----5-----------------|
B|5---6---8---------------------------------|
G|------------------------------------------|
D|------------------------------------------|
A|------------------------------------------|
E|------------------------------------------|

E|------------------------------------------|
B|--8---------------------------------------|
G|------------------------------------------|
D|------------------------------------------|
A|------------------------------------------|
E|------------------------------------------|

e|5/7-----5/7-5---8-------7----------------|
B|-----------------------------------------|
G|-----------------------------------------|
D|-----------------------------------------|
A|-----------------------------------------|
E|-----------------------------------------|

E|--------------------5-6-8-10-10/12-10----|
B|----------------7-8----------------------|
G|-----------------------------------------|
D|-----------------------------------------|
A|-----------------------------------------|
E|-----------------------------------------|

E|-----------------------------------------|
B|-----------------------------------------|
G|-----------------------------------------|
D|-----------------------------------------|
A|-----------------------------------------|
E|7b8-7---7b8-7---5------------------------|

E|-----------------------------------------|
B|-----------------------------------------|
G|-----------------------------------------|
D|-----------------------------------------|
A|-----------------------------------------|
E|---------5---7---7b8-7---7b8-7-----------|

E|-----------------------------------------|
B|-----------------------------------------|
G|-----------------------------------------|
D|-----------------------------------------|
A|-----------------------------------------|
E|5---2---3--------------------------------|

B|15b12--12b10--10-------------------------|
e|15b12--12b10--10-------------------------|
G|-----------------------------------------|
D|-----------------------------------------|
A|-----------------------------------------|
E|-----------------------------------------|

G      C                      G
Always wanting you, but never having you
        Am              D
Makes it hard to face tomorrow 'cause I
Am              D           G     G7
Know I will be wanting you again

       C                     D7
Always loving you, but never touching you
Am           D     Am     D               G
Sometimes hurts almost more that I can stand

         G                        D7 
I'd been better off if I'd turned away and never
                  G
Looked at you the second time
                                  D7
'Cause I really had my life all together
                   G
Till your eyes met mine

                  G7             C
And there I saw a yearning and a feeling 'cross
                  G
The room that you felt for me
Am                   D
Wish I'd had away of knowing that the
Am               D                G  G7
Things we had in mind could never be
00:00 / 00:00
Otros videos de esta canción
Repetir
Otros videos de esta canción
Composición de Merle Haggard
Colaboración y revisión:
  • Gustavo Araújo
102 exhibiciones
    • ½ Tono
    • A
    • Bb
    • B
    • C
    • Db
    • D
    • Eb
    • E
    • F
    • F#
    • G
    • Ab
  • Agregar a la lista
    00:00 / 00:00
    OK