Cifra Club

Graveyard

Mest

Cifrado: Principal (guitarra y guitarra eléctrica)
Selo Cifra Club: esta cifra foi revisada para atender aos critérios oficiais da nossa Equipe de Qualidade.
tono: C
E|---------------------------------------------|
B|---------------------------------------------|
G|---------------------------------------------|
D|-----------------------------9--------9------| 2x
A|-----8-7-8-------8-7-8------8-8------8-8-----|
E|10-10------10-10-------10-10----10-10--------|

E|------------------------------|
B|------------------------------|
G|------------------------------|
D|----------------------------9-|
A|-----8-7-8-------8-7-8----8---|
E|10-10------10-10-------10-----|
Otros videos de esta canción
    1 exhibiciones
      • ½ Tono
      • A
      • Bb
      • B
      • C
      • Db
      • D
      • Eb
      • E
      • F
      • F#
      • G
      • Ab
    • Agregar a la lista

    Afinação da cifra

    Afinador online

      Ops (: Contenido disponible solo en portugués.
      OK