Cifra Club

Its Over

Mest

Cifrado: Principal (guitarra y guitarra eléctrica)
Selo Cifra Club: esta cifra foi revisada para atender aos critérios oficiais da nossa Equipe de Qualidade.
tono: D
INTRO                
E|-------------------|
B|-------------------|
G|-5---55---5\-------|
D|-5---55---5\-------|
A|-3---33---3\-------|
E|----------(vo| cals start here)

VERSE 1                                    
   <         palm muted        >
E|--------------------------------------|
B|--------------------------------------|
G|-5555-5555-2222-2222------------------|
D|-5555-5555-2222-2222-3333-3333-5--3-5-|
A|-3333-3333-0000-0000-3333-3333-5--3-5-|
E|---------------------1111-1111-3--1-3-|
                                         (2x)
E|-----------------------------------------|-----------|
B|-----------------------------------------|-----------|
G|-5555-5555-2222-2222---------------------|-----------|
D|-5555-5555-2222-2222-3333-3333-5555-5555-|-5555-5555-|
A|-3333-3333-0000-0000-3333-3333-5555-5555-|-5555-5555-|
E|---------------------1111-1111-3333-3333-|-3333-3333-|
       
PD-C HORUS               (4x)
E|-------------------------|------------------|
B|-------------------------|------------------|
G|-55555-------------------|------------------|
D|-55555-55555-33333-33333-|-5~-\\\\\\\\\\\\\-|
A|-33333-55555-33333-33333-|-5~-\\pickslide\\-|
E|-------33333-11111-11111-|-3~-\\\\\\\\\\\\\-|

guitar 2 plays this in the background on the 
last two reps of the pre-chorus, and during
the third rep on the 2nd pre-chorus.
E|------------------------------------|
B|------------------------------------|
G|-9-9-9-7-7-7-10-10-10-10-10-10-(2x)-|
D|------------------------------------|
A|------------------------------------|
E|------------------------------------|

VERSE 2
   <        palm muted         >  (1st)      (2nd) (2x)
E|-------------------------------|-----------|--------|
B|-------------------------------|-<| p.m. >-|--------|
G|-5555-5555-2222-2222-----------|-----------|--------|
D|-5555-5555-2222-2222-3333-3333-|-5555-5555-|-5--3-5-|
A|-3333-3333-0000-0000-3333-3333-|-5555-5555-|-5--3-5-|
E|---------------------1111-1111-|-3333-3333-|-3--1-3-|
                                         (2x)
E|-----------------------------------------|-----------|
B|-----------------------------------------|-----------|
G|-5555-5555-2222-2222---------------------|-----------|
D|-5555-5555-2222-2222-3333-3333-5555-5555-|-5555-5555-|
A|-3333-3333-0000-0000-3333-3333-5555-5555-|-5555-5555-|
E|---------------------1111-1111-3333-3333-|-3333-3333-|

CHORUS                   (4x)
E|-------------------------|----------|
B|-------------------------|----------|
G|-55555-------------------|----------|
D|-55555-55555-33333-33333-|-55-55-55-|
A|-33333-55555-33333-33333-|-55-55-55-|
E|-------33333-11111-11111-|-33-33-33-|

G  O (played over chorus chords)
E|----------------------------(p| ick 4x ----|
B|----------------------------| each)----|
G|-/9-7-5--9-7-5--9-7-5~--4-5-7-9-10-12-9~-|
D|-----------------------------------------|
A|-----------------------------------------|
E|-----------------------------------------|

BRIDGE                                   (2x)
E|-----------------------------------------|-------------|
B|-----------------------------------------|-------------|
G|-5555-5555-------------------------------|-------------|
D|-5555-5555-5555-5555-3333-3333-5555-5555-|-3~-5~-55555-|
A|-3333-3333-5555-5555-3333-3333-5555-5555-|-3~-5~-55555-|
E|-----------3333-3333-1111-1111-3333-3333-|-1~-3~-33333-|

guitar 2 plays this at the same time guitar 1 kicks in.
E|----------------------|
B|----------------------|
G|-5-5-5-5-5-5-5-5-(4x)-|
D|----------------------|
A|----------------------|
E|----------------------|

ENDING
E|----|
B|----|
G|-5\-|
D|-5\-|
A|-3\-|
E|----|


**ORDER**
Intro
Verse 1       "You've been waiting for..."
Pre-Chorus    "She looked at you and she said to your face..."
Verse 2       "She said she doesn't know..."
Pre-Chorus    "She looked at you and she said to your face..."
Chorus        "It's over, it's over, it's over..."
Solo
Bridge        "Tell them lies and they will believe you..."
Pre-Chorus    "She looked at you and she said to your face..."
Chorus        "It's over, it's over, it's over..."
Ending


-lyrics-

VERSE 1
You've been waiting for, you never knew for sure
Cause time was goin' by, I never asked you why
When I would talk to you, the words they went right through
your head

But I couldn't tell, you were under her spell
She had full control, no one would ever know
How much you didn't care, just like Sonny not Cher
The beat didn't go on

PD-C HORUS
She looked at you and she said to your face
it's over, it's over
She's got a new man and it's time for you to 
move over, move over
You're drunk and now you wish that you
were sober, were sober
Cuz now you can't get it out of your head
that it's over, that it's over, that it's over

VERSE 2
She said she doesn't know, it's like the Springer show
She said that she loves you, but that she loves him too
So you keep holdin' on, your love for her is strong
Until she says so long, and you did nothin' wrong

But this keeps happening, time and time again
You're thinkin' to yourself, she was your only friend
But you're so fucking wrong, that you're so fucking lame
You realize you're all the same

(repeat PD-C HORUS)

CHORUS
It's over, it's over, it's over.
It's over, it's over, it's over.

(solo)

BRIDGE
Tell them lies and they will believe you
When you're honest they will deceive you
If you love them they will just leave you
But if you play them they will stay with you (2x)
Otros videos de esta canción
    6 exhibiciones
      • ½ Tono
      • A
      • Bb
      • B
      • C
      • Db
      • D
      • Eb
      • E
      • F
      • F#
      • G
      • Ab
    • Agregar a la lista

    Afinação da cifra

    Afinador online

      Ops (: Contenido disponible solo en portugués.
      OK