Cifra Club

Oranian

Metá Metá

Cifrado: Principal (guitarra y guitarra eléctrica)
tono: D
#1

E|---------------------------------|
B|------3-----3-----3----3------3--|
G|----3-----3-----3----3----3------|
D|--------------------0------------|
A|--------1-----3---------3---1----|
E|--3------------------------------|

#2

E|------------------------------------|
B|--------3-----3-----3-----3------3--|
G|----3-------3-----3-----3------3----|
D|----------------0-------------------|
A|----------------------1------3------|
E|--1---2---3-------------------------|

Refrão:

E|--3----1----3----6-6-6-6-6--|
B|--3----1----3----4-4-4-4-4--|
G|--3----1----3----5-5-5-5-5--|
D|--5----3----5----3----------|  (3x)
A|--3----1----3----3----------|
E|--3----1----3----3----------|

E|---------------------|
B|--2---5---8---5---2--|
G|--3---6---9---6---3--|
D|--2---5---8---5---2--|
A|--3---6---9---6---3--|
E|---------------------|

E|--3----1----3----6-6-6-6-6--|
B|--3----1----3----4-4-4-4-4--|
G|--3----1----3----5-5-5-5-5--|   (3x)
D|--5----3----5----3----------|
A|--3----1----3----3----------|
E|--3----1----3----3----------|

E|-----|
B|--3--|
G|--3--|
D|--2--|
A|-----|
E|--3--|

#1

#3

E|------------------------------------------|
B|--------10------10-----10----10-------10--|
G|-----10------10------10----10----10-------|
D|--------------------------8---------------|
A|-----------8-------10----------10---8-----|
E|--10--------------------------------------|

#4

E|-------------------------------------------------------------------------------|
B|-------------------------------------------------------------------------------|
G|-------------------------------------------------------------------------------|
D|----------------------------------------8-7---5---5-3--------------------------|
A|-------5--3------5--3------5--3----5--------8---5------5--3---5-3--5--3--------|
E|--3--6------3--6------3--6------3----6----------------------6------------6--3--|

#1

#4

#1

Refrão

#1

#3

#2  "Quando é para guerrear, quando é pra festejar"

#3

#1

#3

#1

#3

#1
Composición de Douglas Germano / Kiko Dinucci
Colaboración y revisión:
  • Polegar Escargot
42 vistas
    • ½ Tono
    • A
    • Bb
    • B
    • C
    • Db
    • D
    • Eb
    • E
    • F
    • F#
    • G
    • Ab
  • Agregar a la lista

    0 comentarios

    Ver todos los comentarios

    ¿Lograste tocar?

    0 Tocaron 0 Aún no

    ¡Graba un video tocando Oranian y envíanoslo!

    00:00 / 00:00
    Outros vídeos desta música
    Repetir Calidad Automático
    Outros vídeos desta música
    00:00 / 00:00
    Automático
    OK