Cifra Club

Vale do Jucá

Metá Metá

Cifrado: Principal (guitarra y guitarra eléctrica)
tono: Eb
Riff 1 Cm7   Fm7 Cm7


E|---------------------------------]
B|-----------9----------------9-11-]
G|-----8-7-8---8-7-8--------8------]
D|-----------------------10--------]
A|---------------------------------]
E|--8------------------8-----------]


Riff 2   Cm7/G       Dm7(b5) G7
 

E|-----------4-----------------]
B|------4-3-4--4-3-4-----------]
G|-5---------------------------]
D|-5-------------------3----0--]
A|--------------------5-5--2-2-]
E|-3---------------------------]

Riff 3 

    Cm7     Gm7      Cm7
E|-----------------------------]
B|----------9-------------9-11-]
G|----8-7-8---8-7-8------8-----]
D|---------------------10------]
A|----------8------------------]
E|--8----------------8---------]

Riff 4

E|--------------]
B|--------------]
G|--5--5--5--5--]
D|--5--5--5--5--]
A|--3--3--3--3--]
E|--------------]
Composición de Fuloresta / Siba
Colaboración y revisión:
  • Lucas Pereira
69 vistas
    • ½ Tono
    • A
    • Bb
    • B
    • C
    • Db
    • D
    • Eb
    • E
    • F
    • F#
    • G
    • Ab
  • Agregar a la lista

    0 comentarios

    Ver todos los comentarios

    ¿Lograste tocar?

    1 Tocaron 0 Aún no

    ¡Graba un video tocando Vale do Jucá y envíanoslo!

    00:00 / 00:00
    Outros vídeos desta música
    Repetir Calidad Automático
    Outros vídeos desta música
    00:00 / 00:00
    Automático
    OK