Cifra Club

Metal Gear Solid Theme

Metal Gear

Cifrado: Principal (guitarra y guitarra eléctrica)
tono: G
E|-------------------------------------------------------------------|
B|-------5--3---------------3--5----5--3------------------3--5-------|
G|---------------5----------------2---------------------5------------|
D|-------------------------------------------------------------------|
A|-------------------------------------------------------------------|
E|-------------------------------------------------------------------|

E|-------5--3--------------------5---8------|
B|------------5-----3--------5--------------|
G|---------------5--------------------------|
D|------------------------------------------|
A|------------------------------------------|
E|------------------------------------------|

E|------7--8--10--8-------------------------7---8--7-----------------|
B|----------------------10----------8--10--------------10---8---10---|
G|-------------------------------------------------------------------|
D|-------------------------------------------------------------------|
A|-------------------------------------------------------------------|
E|-------------------------------------------------------------------|

E|-------------------------------------------------------------------|
B|-------7--5---------------5--7--0--7--5-----------------5--7-------|
G|---------------7-------------------------------------7-------------|
D|-------------------------------------------------------------------|
A|-------------------------------------------------------------------|
E|-------------------------------------------------------------------|

E|-----7--5----------------------7---10-----|
B|----------7-----5----------7--------------|
G|-------------7----------------------------|
D|------------------------------------------|
A|------------------------------------------|
E|------------------------------------------|

E|------9--10--12--10-------------------------9--10--9------------------|
B|------------------------12----------10--12---------------12---10---12-|
G|----------------------------------------------------------------------|
D|----------------------------------------------------------------------|
A|----------------------------------------------------------------------|
E|----------------------------------------------------------------------|

00:00 / 00:00
Otros videos de esta canción
Repetir
Otros videos de esta canción
Compositor no encontrado.
Colaboración y revisión:
  • Matheus Antiquera
  • lazaro neto
580 vistas
    • ½ Tono
    • A
    • Bb
    • B
    • C
    • Db
    • D
    • Eb
    • E
    • F
    • F#
    • G
    • Ab
  • Agregar a la lista

    0 comentarios

    Ver todos los comentarios

    ¿Lograste tocar?

    4 Tocaron 0 Aún no

    ¡Graba un video tocando Metal Gear Solid Theme y envíanoslo!

    00:00 / 00:00
    OK