Cifra Club

Aprenda

Enter Sandman

Metallica

Tablatura: Principal (guitarra)
Tom: E
[Intro] 

(Guitarra 1) 

[Parte 1 de 5]

E|----------------------------------------------------|
B|----------------------------------------------------|
G|-------0--------------0-----------------------------|
D|-----2--------2-----2-------2-----------------------|
A|----------1-0-----------1-0-------------------------|
E|-0---------------0----------------------------------|

[Parte 2 de 5]

 E5
E|----------------------------------------------------|
B|----------------------------------------------------|
G|----------------------------------------------------|
D|----------------------------------------------------|
A|-/7-------------------------------------------------|
E|----0-0-0-0-0-0-0-----------------------------------|
      P.M..........

[Parte 3 de 5]

E|----------------------------------------------------|
B|----------------------------------------------------|
G|----------------------------------------------------|
D|----------------------------------------------------|
A|-/7---------------/7--------------------------------|
E|----0-0-0-0-0-0-0-----------------------------------|
      P.M..........

[Parte 4 de 5]

                F5
E|----------------------------------------------------|
B|----------------------------------------------------|
G|----------------------------------------------------|
D|----------------------------------------------------|
A|------7---------3-----------------------------------|
E|-0--0---6-0-0-0-1-----------------------------------|
            BP.M..

[Parte 5 de 5]

               F5
E|----------------------------------------------------|
B|----------------------------------------------------|
G|----------------------------------------------------|
D|----------------------------------------------------|
A|---7------------3-----------------------------------|
E|--| —0----6-5-0-0-1-----------------------------------|

[Parte 5 de 5] (Variação)

E|----------------------------------------------------|
B|----------------------------------------------------|
G|----------------------------------------------------|
D|----------------------------------------------------|
A|------7---------------------------------------------|
E|-0| —0----6-5-0-0-------------------------------------|

[Intro 2] 

[Parte 1  de 2]

   E5
E|----------------------------------------------------|
B|----------------------------------------------------|
G|----------------------------------------------------|
D|------------x---------------------------------------|
A|-2---/7-----x---2---/7-----x-2----/7----------------|
E|-0-0----6-5-x---0-0----6-5-x-0-0--------------------|

[Parte 2 de 2]

            G5   F#5   G5 F#5
E|----------------------------------------------------|
B|----------------------------------------------------|
G|----------------------------------------------------|
D|------x---------------------------------------------|
A|------x-----5----4---4-5--4-------------------------|
E|--6-5-x-0---3| —0--2-0-2-3--2-------------------------|

[Parte 2 de 2] (Variação)

          G5   F#5   G5 F#5
E|----------------------------------------------------|
B|----------------------------------------------------|
G|----------------------------------------------------|
D|------x---------------------------------------------|
A|------x---5----4---4-5--4---------------------------|
E|--6-5-x---3| —0--2-0-2-3--2---------------------------|

[Primeira Parte]

[Parte 1 de 2]

                 F5              F5
E|----------------------------------------------------|
B|----------------------------------------------------|
G|----------------------------------------------------|
D|----------------------------------------------------|
A|---------------3---------------3--------------------|
E|-0| —0-0-0-0-0-0-1-0—0-0-0-0-0-0-1--0—0-0-------------|

[Parte 2 de 2]

             G5   F#5   G5 F#5
E|----------------------------------------------------|
B|----------------------------------------------------|
G|----------------------------------------------------|
D|----------------------------------------------------|
A|-----------5----4---4-5--4--------------------------|
E|--0-0-0-0--3| —0--2-0-2-3--2--------------------------|

E5                          F5
   Say your prayers, little one
                  F5
Don't forget, my son
                G5  F#5 G5 F#5
To include everyone
E5                       F5
   Tuck you in, warm within
                    F5
Keep you free from sin
                      G5  F#5 G5 F#5
Till the Sandman, he comes

Yeah!

[Segunda Parte]

 F#m
E|----------------------------------------------------|
B|----------------------------------------------------|
G|-------2--------------2-----------------------------|
D|-----4--------4-----4-------4-----------------------|
A|----------3-2-----------3-2-------------------------|
E|-2---------------2----------------------------------|

  F#m
Sleep with one eye open

Gripping your pillow tight

[Refrão - Parte 1 de 4]

F#5      C5 B5
E|----------------------------------------------------|
B|----------------------------------------------------|
G|----------------------------------------------------|
D|----------5--4--4-----------------------------------|
A|-4--4--4--3--2--2-----------------------------------|
E|-2-| —2—-2--------------------------------------------|

[Parte 1 de 4] (Variação)

 F#5     C#5 C5 B5
E|----------------------------------------------------|
B|----------------------------------------------------|
G|----------------------------------------------------|
D|---------6---5--4--4--------------------------------|
A|-4--4--4-4---3--2--2--------------------------------|
E|-2-| —2—-2--------------------------------------------|

[Parte 2 de 4]

 F#5      C5 B5
E|----------------------------------------------------|
B|----------------------------------------------------|
G|-------------------------------4-0------------------|
D|----------5--4--4----2-5-2-5-2----------------------|
A|-4--4--4--3--2--2-2---------------------------------|
E|-2--2--2----------0---------------------------------|

[Parte 3 de 4]

 F#5      C5 B5
E|----------------------------------------------------|
B|----------------------------------------------------|
G|-------------------------------2--------------------|
D|----------5--4--4----2-5-2-5-2---2------------------|
A|-4--4--4--3--2--2--2--------------------------------|
E|-2--2| —-2-----------0--------------------------------|

[Parte 4 de 4]

 G5   F#5   G5 F#5
E|----------------------------------------------------|
B|----------------------------------------------------|
G|----------------------------------------------------|
D|----------------------------------------------------|
A|-5----4---4-5--4------------------------------------|
E|-3| —0--2-0-2-3--2------------------------------------|

F#5 C5 B5  
  Exit   
 F#5  C5 B5
Light

F#5 C5 B5  
Enter      
 E5
Night
 F#5 C5 B5  E5
Take my    hand
 G5   F#5     G5  F#5  E5
We're off to never    land

[Primeira Parte]

E5                            F5
 Something's wrong, shut the light
                  F5
Heavy thoughts tonight
                          G5  F#5 G5 F#5
And they aren't of snow white

Dreams of war
            F5
Dreams of liars
                    F5
Dreams of dragon's fire
                         G5  F#5 G5 F#5
And of things that will bite

Yeah!

[Segunda Parte]

  F#m
Sleep with one eye open

Gripping your pillow tight

[Refrão]

F#5 C5 B5  
  Exit   
 F#5  C5 B5
Light

F#5 C5 B5  
Enter      
 E5
Night
 F#5 C5 B5  E5
Take my    hand
 G5   F#5     G5  F#5  E5
We're off to never    land

[Solo]

[Parte 1 de 15]

E|----------------------------------------------------|
B|-15-----15--15--12--15-----15---15-------15b-15b17--|
G|-14b16| —b16-b16r-14b-14b16-b16--b16r14p12------------|
D|----------------------------------------------------|
A|----------------------------------------------------|
E|----------------------------------------------------|

[Parte 2 de 15]

E|----------------------------------------------------|
B|----------------------------------------------------|
G|-12/14-14-14-14\12-12-12-12/14-14-14-14\12-12-12----|
D|----------------------------------------------------|
A|-10/12-12-12-12\10-10-10-10/12-12-12-12\10-10-10----|
E|----------------------------------------------------|

[Parte 3 de 15]
E|----------------------------------------------------|
B|----------------------------------------------------|
G|-14p12----------------------------------------------|
D|-------14-14p12-------------------------------------|
A|----------------14-14p12----------------------------|
E|--------------------------15--12~~\-----------------|

[Parte 4 de 15]

E|-----12-12-----12-12------12-12-----12-12-----12----|
B|-15b-------15b-------15b--------15b-------15b-------|
G|----------------------------------------------------|
D|----------------------------------------------------|
A|----------------------------------------------------|
E|----------------------------------------------------|

[Parte 4 de 15]

E|-----12-12-----12-12-----12-12-----12-12-----12-12--|
B|-15b-------15b-------15b-------15b-------15b--------|
G|----------------------------------------------------|
D|----------------------------------------------------|
A|----------------------------------------------------|
E|----------------------------------------------------|

[Parte 5 de 15]

E|-12h15p12----12h15p12----12h15p12----12h15p12-------|
B|----------15----------15----------15----------------|
G|----------------------------------------------------|
D|----------------------------------------------------|
A|----------------------------------------------------|
E|----------------------------------------------------|

[Parte 6 de 15]

E|----12h15/17p14----17p14----14p17/19p15-------------|
B|-15-------------15-------15-------------------------|
G|----------------------------------------------------|
D|----------------------------------------------------|
A|----------------------------------------------------|
E|----------------------------------------------------|

[Parte 7 de 15]

E|----19p15----15h19/22p15-0--22p15-0-22p15--22b24----|
B|-17-------17----------------------------------------|
G|----------------------------------------------------|
D|----------------------------------------------------|
A|----------------------------------------------------|
E|----------------------------------------------------|

[Parte 8 de 15]

E|----------------------------------------------------|
B|-10b--10b-10b-10b--10b-----------10~-10-8p7---8p7---|
G|--9b---9b--9b--9b---9b-7-------7------------9-------|
D|-------------------------9-7h9----------------------|
A|----------------------------------------------------|
E|----------------------------------------------------|

[Parte 9 de 15]

E|----------------------------------------------------|
B|---7------------------------------------------------|
G|-9---9p7---7-9p7-7----------------------------------|
D|---------9---------9p7---7-9p7----------------------|
A|-----------------------9-------9p8p7----------------|
E|-------------------------------------10-7-5---------|

[Parte 10 de 15]

E|----------------------------------------------------|
B|----------------------------------------------------|
G|-16b18-14----14-16-16b18-14----14-16-16b18-14-------|
D|----------16----------------16----------------16----|
A|----------------------------------------------------|
E|----------------------------------------------------|

[Parte 11 de 15]
                                        v v v v v
E|----------------------------------------------------|
B|-------17-------17-17----17--17-----16--------------|
G|-16b18----16b18----16b18-----16b18r-----------------|
D|----------------------------------------------------|
A|----------------------------------------------------|
E|----------------------------------------------------|

[Parte 12 de 15]

E|-21p17---21p17---21p17---21p17---21p17---21p17------|
B|------17------17------17------17------17------17----|
G|----------------------------------------------------|
D|----------------------------------------------------|
A|----------------------------------------------------|
E|----------------------------------------------------|

[Parte 13 de 15]

E|-22fb--21-22--22fb--21-22-22fb~~~~~--22\------------|
B|----------------------------------------------------|
G|----------------------------------------------------|
D|----------------------------------------------------|
A|----------------------------------------------------|
E|----------------------------------------------------|

[Parte 14 de 15]

E|----------------------------------------------------|
B|-10p9p8p7-------------------------------------------|
G|----------9-9p7-------------------------------------|
D|----------------9-9p7-5--7b9---5~~------------------|
A|---------------------------------7~~~-5h7-4---------|
E|----------------------------------------------------|

[Parte 15 de 15]

E|----------------------------------------------------|
B|----------------------------------------------------|
G|----------------------------------------------------|
D|----------------------------------------------------|
A|-4~-----------0--2--2--2--2--2--2--2--2--2--2--2----|
E|----------------------------------------------------|

[Terceira Parte]

E|----------------------------------------------------|
B|----------------------------------------------------|
G|---------14-----------------------------------------|
D|--16--16--------------------------------------------|
A|----------------------------------------------------|
E|----------------------------------------------------|

E|----------------------------------------------------|
B|----------------------------------------------------|
G|----------------------------------------------------|
D|-------------------------4---4----------------------|
A|-4-4-4-4-4-4-4-4-4-4-4-4-4-4-4-2--------------------|
E|-2-2-2-2-2-2-2-2-2-2-2-2-2-2-2-0--------------------|


Now I lay me down to sleep

Pray the lord my soul to keep

If I die before I wake

Pray the lord my soul to take

(Guitarra 2)

E|----------------------------------------------------|
B|----------------------------------------------------|
G|---------12-----------------------------------------|
D|--14--14--------------------------------------------|
A|----------------------------------------------------|
E|----------------------------------------------------|

Hush little baby, don't say a word

And never mind that noise you heard

It's just the beast under your bed

In your closet, in your head

[Refrão]

F#5 C5 B5  
  Exit   
 F#5  C5 B5
Light

F#5 C5 B5  
Enter      
 E5
Night
 F#5 C5 B5  E5
Take my    hand

F#5 C5 B5  
  Exit   
 F#5  C5 B5
Light

F#5 C5 B5  
Enter      
 E5
Night
 F#5 C5 B5  E5
Take my    hand
 G5   F#5     G5  F#5  E5
We're off to never    land

[Final]

[Parte 1 de 6]

E|----------------------------------------------------|
B|----------------------------------------------------|
G|----------------------------------------------------|
D|----------------------------------------------------|
A|-2---2-2---/7---------2---/7------------------------|
E|-0---0-0-0----6-5--0--0-0----6-5--0-----------------|

[Parte 2 de 6] (2x)

E|----------------------------------------------------|
B|----------------------------------------------------|
G|----------------------------------------------------|
D|----------------------------------------------------|
A|-2-2---/7---------2---/7----------------------------|
E|-0-0-0----6-5--0--0-0----6-5--0---------------------|

[Parte 3 de 6] (2x)

E|----------------------------------------------------|
B|----------------------------------------------------|
G|----------------------------------------------------|
D|----------------------------------------------------|
A|-2---/7---------5---4---4-5-4-----------------------|
E|-0-0----6-5--0--3-0-2-0-2-3-2-----------------------|

[Parte 4 de 6] (4x)

                 F5
E|----------------------------------------------------|
B|----------------------------------------------------|
G|----------------------------------------------------|
D|----------------------------------------------------|
A|------/7---0-----3----------------------------------|
E|-0| —0-----6---0-0-1----------------------------------|

[Parte 5 de 6] (4x)
                F5
E|----------------------------------------------------|
B|----------------------------------------------------|
G|----------------------------------------------------|
D|----------------------------------------------------|
A|------7---------3-----------------------------------|
E|-0| —0----6-0-0-0-1-----------------------------------|

[Parte 6 de 6] (4x)

E|----------------------------------------------------|
B|----------------------------------------------------|
G|----------------------------------------------------|
D|----------------------------------------------------|
A|------/7--------------------------------------------|
E|-0| —0-----0-0-0-0-0----------------------------------|
Compositor James Hetfield / Kirk Hammett / Lars Ulrich
Colaboración y revision:
  • Getúlio Vasconcelos
  • Tarsius Lima
  • Matheus Holender
77.435 reproducciones
  • Simplificar cifra
    • ½ Tom
    • A
    • Bb
    • B
    • C
    • Db
    • D
    • Eb
    • E
    • F
    • F#
    • G
    • Ab
  • Adicionar à lista

    0 comentarios

    Mostrar mais comentários
    00:00 / 00:00
    outros vídeos desta música
    repetir qualidade Automático
    Outros vídeos desta música
    00:00 / 00:00
    Automático
    Capítulos
    • Início
    • Tocando a música
    • Configuração dos Efeitos
    • Acordes da Introdução
    • Tocando Introdução e Primeira Parte
    • Ensinando Introdução
    • Acordes da Segunda Parte e do Refrão
    • Ensinando Primeira Parte
    • Tocando Segunda Parte e Refrão
    • Ensinando Segunda Parte
    • Ensinando Refrão
    • Tocando Solo
    • Ensinando Solos
    • Tocando Terceira Parte e Final
    • Ensinando Terceira Parte
    • Ensinando Final
    • Encerramento
    OK