Cifra Club

For Whom The Bell Tolls

Metallica

Cifrado: Principal (guitarra y guitarra eléctrica)
Selo Cifra Club: esta cifra foi revisada para atender aos critérios oficiais da nossa Equipe de Qualidade.
tono: Em
[Intro] F#5  E5  F#5  E5  F#5  E5
        F#5  E5  F#5  E5  F#5  E5  
        F#5  E5  F#5  E5  F#5  E5  
        F#5  E5  F#5  E5  F#5  E5  F#5

[Tab - Riff 1]

   P.m
E|------------------------------------------|
B|------------------------------------------|
G|------------------------------------------| (12x)
D|-4--4---4--4---2--------------------------|
A|-4--4---4--4---2--------------------------|
E|-2--2---2--2---0--------------------------|

   P.m
E|------------------------------------------|
B|------------------------------------------|
G|------------------------------------------|
D|-4--4-------------------------------------|
A|-4--4-------------------------------------|
E|-2--2-------------------------------------|

[Tab - Riff 2 - 2x]

  P.m
B|-----------------|------------------------|
G|-----------------|------------------------|
D|-----------------|------------------------|
A|-----------------|---------------2--------|
E|-2-5-4-3-2-5-4-3-|-2-5-4-1-2-4-5-0--------|
E|-0-3-2-1-0-3-2-1-|-0-3-2-1-0-2-3----------|

  P.m
B|-----------------|------------------------|
G|-----------------|------------------------|
D|-----------------|------------------------|
A|-----------------|---------------4--------|
E|-2-5-4-3-2-5-4-3-| 2-5-4-1-2-4-5-2--------|
E|-0-3-2-1-0-3-2-1-| 0-3-2-1-0-2-3----------|

[Tab - Solo Intro]

E|---------------------|--------------------|
B|---------------------|--------------------|
G|--12-9-11----9-11----|--12-9-11----9-11---| (15x)
D|----------12---------|----------12--------|
A|---------------------|--------------------|
E|---------------------|--------------------|

E|---------------------|--------------------|
B|---------------------|--------------------|
G|--12-9-11----9-------|--------------------|
D|----------12---11-12-|--9-11------9-------|
A|---------------------|--------12-----10---|
E|---------------------|--------------------|

[Tab - Riff 3]

   E5    G5
E|------------------------------------------|
B|------------------------------------------|
G|------------------------------------------|
D|-2-----5----5-----------------------------|
A|-2-----5----5-----------------------------|
E|-0-----3----3-----------------------------|

     E5  G5  C5  A5
E|------------------------------------------|
B|------------------------------------------|
G|-----------5---2--------------------------|
D|---2---5---3---2--------------------------|
A|---2---5---3---0--------------------------|
E|---0---3----------------------------------|

[Tab - Riff 4]

          G5        A5        G5 A#5 F#5
E|------------------------------------------|
B|------------------------------------------|
G|-------------------------------3----------|
D|--------5---------7---------5--3---4------|
A|--------5---------7---------5--1---4------|
E|-0-0-0--3--0-0-0--5--0-0-0--3------2------|

          G5        A5       G5     A#5 F#5 F5
E|--------------------------------------------|
B|--------------------------------------------|
G|----------------------------------3---------|
D|--------5---------7---------------3---4---3-|
A|--------5---------7--------5------1---4---3-|
E|-0-0-0--3--0-0-0--5--0-0-0-3-0-0------2---1-|

[Primeira Parte]

(Riff 3)
Make his fight on the
Hill in the early day
Constant chill deep inside
Shouting gun, on they
Run through the endless grey
On the fight, for they are right
Yes, but who's to say?
For a hill men would kill, why?
They do not know
Suffered wounds test their pride
Men of five, still alive t
Hrough the raging glow
Gone insane from the pain
That they surely know

[Refrão]

(Riff 04)
For whom the bell tolls
Time marches on
For whom the bell tolls

[Solo 1] E5  G5  B5

[Tab - Solo 1 - Guitarra 1]
                                             E5
E|------------------------|--------------------|
B|------------------------|--------------------|
G|--12--9--11----9--------|--------------------|
D|------------12---11--12-|-9--11------9-------|
A|------------------------|-------12-----10--2-|
E|------------------------|------------------0-|

E|------------------------|--------------------|
B|------------------------|--------------------|
G|--12--9--11----9--------|--------------------|
D|------------12---11--12-|-9--11------9-------|
A|------------------------|-------12-----10----|
E|------------------------|--------------------|
     G5
E|------------------------|--------------------|
B|------------------------|--------------------|
G|------------------------|--------------------|
D|---5--5-5-5-5----5-5-5--|--------------------|
A|---5--5-5-5-5----5-5-5--|--------------------|
E|---3--3-3-3-3----3-3-3--|--------------------|
                                             B5
E|------------------------|--------------------|
B|------------------------|--------------------|
G|--12-9-11-----9---------|--------------------|
D|----------12-----11--12-|-9--11-----9--------|
A|------------------------|--------12---10---9-|
E|------------------------|------------------7-|

[Tab - Solo 2]

E|--------------------------------------------|
B|------------------------------------12-12---|
G|--------------------12----------------------|
D|--------12-------14----14-14--12h14---------|
A|--14-12----12-14----------------------------|
E|--------------------------------------------|

E|--------------------------------------------|
B|-------------------------------------12-----|
G|--------------------12------------------12--|
D|--------12-------14----14-14--12h14---------|
A|--14-12----12-14----------------------------|
E|--------------------------------------------|

E|--------------------------------------------|
B|------------------------------------12-12---|
G|--------------------12----------------------|
D|--------12-------14----14-14--12h14---------|
A|--14-12----12-14----------------------------|
E|--------------------------------------------|

[Segunda Parte]

(Riff 3)
Take a look to the sky
Just before you die
It is the last time you will
Blackened roar massive roar
Fills the crumbling sky
Shattered goal fills
His soul with a ruthless cry
Stranger now, are his eyes
To this mystery
He hears the silence so loud
Crack of dawn, all is gone
Except the will to be
Now the will see what will be
Blinded eyes to see

[Refrão]

(Riff 04)
For whom the bell tolls
Time marches on
For whom the bell tolls

[Final] E5  F#5  E5  F#5  G5
        E5  F#5  E5  F#5  G5
        E5  F#5  E5  F#5  G5
        E5  F#5  E5  F#5  G5  E5

[Tab - Riff 5]

    E5  F#5   E5  F#5   G5
E|----------------------------|
B|----------------------------|
G|----------------------------| (2x)
D|--2---4-4---2---4-4---5-5---|
A|--2---4-4---2---4-4---5-5---|
E|--0---2-2---0---2-2---3-3---|

Bends Uníssonos
E|------9---------9-----10----|
B|------12b-------12b---13b---|
G|----------------------------| (2x)
D|----------------------------|
A|----------------------------|
E|----------------------------|

Harmônicos Improvisados
   Har.         H.A
E|----------------------------|
B|----------------------------|
G|--7-----------7~~~~---------|
D|----------------------------|
A|----------------------------|
E|----------------------------|
Otros videos de esta canción
    57.019 exhibiciones
    • Simplificar cifrado
      • ½ Tono
      • Am
      • Bbm
      • Bm
      • Cm
      • C#m
      • Dm
      • Ebm
      • Em
      • Fm
      • F#m
      • Gm
      • G#m
    • Agregar a la lista

    Afinação da cifra

    Afinador online

      Capítulos
      • Início
      • Tocando trecho da música
      • Dicas para Power chords
      • Tocando intro (Riff 1 e 2)
      • Ensinando Riff 1
      • Ensinando Riff 2
      • Tocando Solo e Riff 4
      • Ensinando Guitarra base (Solo)
      • Ensinando Solo
      • Ensinando Riff 4
      • Tocando primeira parte e refrão (Riff 3 e 4)
      • Tocando Solo 1 e 2
      • Ensinando Solo 1 (Parte 1)
      • Ensinando Solo 1 (Parte 2 - 4)
      • Ensinando Solo 2 (Parte 1)
      • Ensinando Solo 2 (Parte 2 e 3)
      • Dicas para música (repetição)
      • Tocando Riff 5 - Bends e Harmônicos
      • Ensinando Riff 5
      • Bends Uníssono
      • Harmônicos
      • Encerramento
      Ops (: Contenido disponible solo en portugués.
      OK