Cifra Club

Master Of Puppets

Metallica

Chords: Principal (acoustic and electric guitars)
tone: E
[Intro 1]

E|-----------------------------------------------------|
B|-----------------------------------------------------|
G|-----------------------------------------------------|
D|-2--------12--11--10---------------------------------|
A|-2--------12--11--10---------------------------------|
E|-0--------10---9---8---------------------------------|

  P.M.    . .    . .
E|-----------------------------------------------------|
B|-----------------------------------------------------|
G|-----------------------------------------------------|
D|-----------------------------------------------------|
A|-------------------12--11--10------------------------|
E|-0-0-12-0-0-11-0-0-10---9---8------------------------|

  P.M.   . .   . .   .   .   .   
E|-----------------------------------------------------|
B|-----------------------------------------------------|
G|-----------------------------------------------------|
D|-----------------------------------------------------|
A|-----------------------------------------------------|
E|-0-0-7-0-0-6-0-0-5-0-4-0-3-0-2-0---------------------|

  P.M.    . .    . .
E|-----------------------------------------------------|
B|-----------------------------------------------------|
G|-----------------------------------------------------|
D|-----------------------------------------------------|
A|-------------------12--11--10------------------------|
E|-0-0-12-0-0-11-0-0-10---9---8------------------------|

  P.M.   . .   . .   .   .   .   
E|-----------------------------------------------------|
B|-----------------------------------------------------|
G|-----------------------------------------------------|
D|-----------------------------------------------------|
A|-----------------------------------------------------|
E|-0-0-7-0-0-6-0-0-5-0-4-0-3-0-2-0---------------------|

  P.M.    . .    . .
E|-----------------------------------------------------|
B|-----------------------------------------------------|
G|-----------------------------------------------------|
D|-----------------------------------------------------|
A|-------------------12--11--10------------------------|
E|-0-0-12-0-0-11-0-0-10---9---8------------------------|

  P.M.   . .   . .   .   .   .   
E|-----------------------------------------------------|
B|-----------------------------------------------------|
G|-----------------------------------------------------|
D|-----------------------------------------------------|
A|-----------------------------------------------------|
E|-0-0-7-0-0-6-0-0-5-0-4-0-3-0-2-0---------------------|

  P.M.    . .    . .
E|-----------------------------------------------------|
B|-----------------------------------------------------|
G|-----------------------------------------------------|
D|-----------------------------------------------------|
A|-------------------12--11--10------------------------|
E|-0-0-12-0-0-11-0-0-10---9---8------------------------|

  P.M.   . .   . .   .   .   .   
E|-----------------------------------------------------|
B|-----------------------------------------------------|
G|-----------------------------------------------------|
D|-----------------------------------------------------|
A|-----------------------------------------------------|
E|-0-0-7-0-0-6-0-0-5-0-4-0-3-0-2-0---------------------|

[Intro 2]

Parte 1 de 6

  P.M.   . .   . .   . .   . .
E|-----------------------------------------------------|
B|-----------------------------------------------------|
G|-----------------------------------------------------|
D|-----------------------------------------------------|
A|-----2-----3-----4-----3-----2-2---------------------|
E|-0-1---0-1---0-1---0-1---0-1-------------------------|

  P.M.   . .   . .      .      .
E|-----------------------------------------------------|
B|-----------------------------------------------------|
G|-----------------------------------------------------|
D|-----------------------------------------------------|
A|-----2-----3-----5\4----5\4----5\4-------------------|
E|-0-1---0-1---1-0-3\2--0-3\2--0-3\2-------------------|

Parte 2 de 6

  P.M.   . .   . .   . .   . .
E|-----------------------------------------------------|
B|-----------------------------------------------------|
G|-----------------------------------------------------|
D|-----------------------------------------------------|
A|-----2-----3-----4-----3-----2-2---------------------|
E|-0-1---0-1---0-1---0-1---0-1-------------------------|

  P.M.   . .   . .      .      .
E|-----------------------------------------------------|
B|-----------------------------------------------------|
G|-----------------------------------------------------|
D|-----------------------------------------------------|
A|-----2-----3-----5\4----5\4----5\4-------------------|
E|-0-1---0-1---1-0-3\2--0-3\2--0-3\2-------------------|

Parte 3 de 6

  P.M.   . .   . .   . .   . .
E|-----------------------------------------------------|
B|-----------------------------------------------------|
G|-----------------------------------------------------|
D|-----------------------------------------------------|
A|-----2-----3-----4-----3-----2-2---------------------|
E|-0-1---0-1---0-1---0-1---0-1-------------------------|

  P.M.   . .   . .   . .   . .
E|-----------------------------------------------------|
B|-----------------------------------------------------|
G|-----------------------------------------------------|
D|-----------------------------4-----------------------|
A|-----2-----3-----4-----3-----2-----------------------|
E|-0-1---0-1---0-1---0-1---0-1-------------------------|

Parte 4 de 6

  P.M.   . .   . .   . .   . .
E|-----------------------------------------------------|
B|-----------------------------------------------------|
G|-----------------------------------------------------|
D|-----------------------------------------------------|
A|-----2-----3-----4-----3-----2-2---------------------|
E|-0-1---0-1---0-1---0-1---0-1-------------------------|

  P.M.   . .   . .      .      .
E|-----------------------------------------------------|
B|-----------------------------------------------------|
G|-----------------------------------------------------|
D|-----------------------------------------------------|
A|-----2-----3-----5\4----5\4----5\4-------------------|
E|-0-1---0-1---1-0-3\2--0-3\2--0-3\2-------------------|

Parte 5 de 6

  P.M.   . .   . .   . .   . .
E|-----------------------------------------------------|
B|-----------------------------------------------------|
G|-----------------------------------------------------|
D|-----------------------------------------------------|
A|-----2-----3-----4-----3-----2-2---------------------|
E|-0-1---0-1---0-1---0-1---0-1-------------------------|

  P.M.   . .   . .   . .   . .
E|-----------------------------------------------------|
B|-----------------------------------------------------|
G|-----------------------------------------------------|
D|-----------------------------4-----------------------|
A|-----2-----3-----4-----3-----2-----------------------|
E|-0-1---0-1---0-1---0-1---0-1-------------------------|

Parte 6 de 6

  P.M.   . .   . .   . .   . .
E|-----------------------------------------------------|
B|-----------------------------------------------------|
G|-----------------------------------------------------|
D|-----------------------------------------------------|
A|-----2-----3-----4-----3-----2-2---------------------|
E|-0-1---0-1---0-1---0-1---0-1-------------------------|

  P.M.   . .   . .      .      .          .      .
E|-----------------------------------------------------|
B|-----------------------------------------------------|
G|-----------------------------------------------------|
D|-----------------------------------------------------|
A|-----2-----3-----5\4----5\4----5\4-5\4----5\4----5\4-|
E|-0-1---0-1---1-0-3\2--0-3\2--0-3\2-3\2--0-3\2--0-3\2-|

[Passagem]

E|-----------------------------------------------------|
B|-----------------------------------------------------|
G|-----------------------------------------------------|
D|-----8-----8-----8-----8-----8-----------------------|
A|---7-----7-----7-----7-----7-------------------------|
E|-0-----0-----0-----0-----0---------------------------|

[Introdução 3]

  P.M. . . . . . . .      .
E|-----------------------------------------------------|
B|-----------------------------------------------------|
G|-----------------------------------------------------|
D|-----------------------------------------------------|
A|-------------------5/7----8\7-5/7--------------------|
E|-0-0-0-0-0-0-0-0-0-3/5--0-6\5-3/5--------------------|

  P.M. . . . . . . .
E|-----------------------------------------------------|
B|-----------------------------------------------------|
G|-----------------------------------------------------|
D|-----------------------------------------------------|
A|-------------------5/7-5/7---------------------------|
E|-0-0-0-0-0-0-0-0-0-3/5-3/5---------------------------|

  P.M. . . . . . . .      .
E|-----------------------------------------------------|
B|-----------------------------------------------------|
G|-----------------------------------------------------|
D|-----------------------------------------------------|
A|-------------------5/7----8\7-5/7--------------------|
E|-0-0-0-0-0-0-0-0-0-3/5--0-6\5-3/5--------------------|

  P.M. . . . . . . .
E|-----------------------------------------------------|
B|-----------------------------------------------------|
G|-----------------------------------------------------|
D|-----------------------------------------------------|
A|-------------------5/7-5/7---------------------------|
E|-0-0-0-0-0-0-0-0-0-3/5-3/5---------------------------|

[Primeira Parte]

  P.M. . . . . . . .      .
E|-----------------------------------------------------|
B|-----------------------------------------------------|
G|-----------------------------------------------------|
D|-----------------------------------------------------|
A|-------------------5/7----8\7-5/7--------------------|
E|-0-0-0-0-0-0-0-0-0-3/5--0-6\5-3/5--------------------|

  P.M. . . . . . . .
E|-----------------------------------------------------|
B|-----------------------------------------------------|
G|-----------------------------------------------------|
D|-----------------------------------------------------|
A|-------------------5/7-5/7---------------------------|
E|-0-0-0-0-0-0-0-0-0-3/5-3/5---------------------------|

End of passion play
Crumbling away
I'm your source of self-destruction
Veins that pump with fear
Sucking darkest clear
Leading on your death's construction

  P.M. . . . . . . .      
E|-----------------------------------------------------|
B|-----------------------------------------------------|
G|-----------------------------------------------------|
D|-------------------4------5\4-4----------------------|
A|-------------------0h2----3\2-0h2--------------------|
E|-2-2-2-2-2-2-2-2-2-----------------------------------|

  P.M. . . . . . . .    
E|-----------------------------------------------------|
B|-----------------------------------------------------|
G|-----------------------------------------------------|
D|-------------------4---4-----------------------------|
A|-------------------0h2-0h2---------------------------|
E|-2-2-2-2-2-2-2-2-2-----------------------------------|

  P.M. . . . . . . .   
E|-----------------------------------------------------|
B|-----------------------------------------------------|
G|-----------------------------------------------------|
D|-------------------4------5\4-4----------------------|
A|-------------------0h2----3\2-0h2--------------------|
E|-2-2-2-2-2-2-2-2-2-----------------------------------|

  P.M. . . . . . . .   
E|-----------------------------------------------------|
B|-----------------------------------------------------|
G|-----------------------------------------------------|
D|-------------------4---4-----------------------------|
A|-------------------0h2-0h2---------------------------|
E|-2-2-2-2-2-2-2-2-2-----------------------------------|

  P.M. . . . . . . 
E|-----------------------------------------------------|
B|-----------------------------------------------------|
G|-----------------------------------------------------|
D|-4-4-4-4-4-4-4-4-------------------------------------|
A|-2-2-2-2-2-2-2-2-------------------------------------|
E|-----------------------------------------------------|

Taste me, you will see
More is all you need
You're dedicated to
How I'm killing you

[Pré-Refrão]

    P.M. .   .      . .
E|-----------------------------------------------------|
B|-----------------------------------------------------|
G|-----------------------------------------------------|
D|-9-------7---9--------9------------------------------|
A|-7-------5---7----7-9---10-9h10----------------------|
E|---0-0-0---0-----------------------------------------|

  P.M. . .          . . . .
E|-----------------------------------------------------|
B|-----------------------------------------------------|
G|-----------------------------------------------------|
D|--------------------------8--------------------------|
A|---------10---9-----------6---9----------------------|
E|-7-7-7-7--8---7---8-8-8-8-----7----------------------|

    P.M. .   .      . .
E|-----------------------------------------------------|
B|-----------------------------------------------------|
G|-----------------------------------------------------|
D|-9-------7---9--------9------------------------------|
A|-7-------5---7----7-9---10-9h10----------------------|
E|---0-0-0---0-----------------------------------------|

  P.M. . .          . . . .
E|-----------------------------------------------------|
B|-----------------------------------------------------|
G|-----------------------------------------------------|
D|--------------------------8--------------------------|
A|---------10---9-----------6---9----------------------|
E|-7-7-7-7--8---7---8-8-8-8-----7----------------------|

    P.M. .   .      . .
E|-----------------------------------------------------|
B|-----------------------------------------------------|
G|-----------------------------------------------------|
D|-9-------7---9--------9------------------------------|
A|-7-------5---7----7-9---10-9h10----------------------|
E|---0-0-0---0-----------------------------------------|

  P.M. . .          . . . .
E|-----------------------------------------------------|
B|-----------------------------------------------------|
G|-----------------------------------------------------|
D|--------------------------8--------------------------|
A|---------10---9-----------6---9----------------------|
E|-7-7-7-7--8---7---8-8-8-8-----7----------------------|

    P.M. .   .      . .
E|-----------------------------------------------------|
B|-----------------------------------------------------|
G|-----------------------------------------------------|
D|-9-------7---9--------9------------------------------|
A|-7-------5---7----7-9---10-9h10----------------------|
E|---0-0-0---0-----------------------------------------|

  P.M. . .          
E|-----------------------------------------------------|
B|-----------------------------------------------------|
G|-----------------------------------------------------|
D|-----------------------------------------------------|
A|---------10---9----9-7-6-6----6----------------------|
E|-7-7-7-7--8---7-----------------8-7-7----------------|

E|-----------------------------------------------------|
B|-----------------------------------------------------|
G|-----------------------------------------------------|
D|-2--2----3--3----------------------------------------|
A|-2--2----3--3----------------------------------------|
E|-0--0----1--1----------------------------------------|

Come crawling faster
Obey your master
Your life burns faster
Obey your master
Master

[Refrão]

      P.M. .   . . .
E|-----------------------------------------------------|
B|-----------------------------------------------------|
G|-----------------------------------------------------|
D|-----------------------------------------------------|
A|-2---------4-------5---------------------------------|
E|-0---0-0-0-2-0-0-0-3---------------------------------|

      P.M. .   . . .
E|-----------------------------------------------------|
B|-----------------------------------------------------|
G|-----------------------------------------------------|
D|-5---------4-------2---------------------------------|
A|-3---0-0-0-2-0-0-0-0---------------------------------|
E|-----------------------------------------------------|

      P.M. .   . . .
E|-----------------------------------------------------|
B|-----------------------------------------------------|
G|-----------------------------------------------------|
D|-7---------5-------4---------------------------------|
A|-5---------3-------2---------------------------------|
E|-----3-3-3---3-3-3-----------------------------------|

      P.M. .   . . .
E|-----------------------------------------------------|
B|-----------------------------------------------------|
G|-----------------------------------------------------|
D|-9---------7-------5---------------------------------|
A|-7---------5-------3---------------------------------|
E|-----0-0-0---0-0-0-----------------------------------|

E|-----------------------------------------------------|
B|-----------------------------------------------------|
G|-----------------------------------------------------|
D|-2--2----3--3----------------------------------------|
A|-2--2----3--3----------------------------------------|
E|-0--0----1--1----------------------------------------|

      P.M. .   . . .
E|-----------------------------------------------------|
B|-----------------------------------------------------|
G|-----------------------------------------------------|
D|-------------------5---------------------------------|
A|-2---------4-------3---------------------------------|
E|-0---0-0-0-2-0-0-0-----------------------------------|

E|-----------------------------------------------------|
B|-----------------------------------------------------|
G|-----------------------------------------------------|
D|-2--2----3--3----------------------------------------|
A|-2--2----3--3----------------------------------------|
E|-0--0----1--1----------------------------------------|

Master of puppets
I'm pulling your strings
Twisting your mind 
And smashing your dreams
Blinded by me
You can't see a thing
Just call my name 
'cause I'll hear you scream
Master, Master
Just call my name 
'cause I'll hear you scream
Master, Master

[Riff 2]

  P.M.   . .   . .   . .   . .
E|-----------------------------------------------------|
B|-----------------------------------------------------|
G|-----------------------------------------------------|
D|-----------------------------------------------------|
A|-----2-----3-----4-----3-----2-2---------------------|
E|-0-1---0-1---0-1---0-1---0-1-------------------------|

  P.M.   . .   . .   . .   . .
E|-----------------------------------------------------|
B|-----------------------------------------------------|
G|-----------------------------------------------------|
D|-----------------------------4-----------------------|
A|-----2-----3-----4-----3-----2-----------------------|
E|-0-1---0-1---0-1---0-1---0-1-------------------------|

  P.M.   . .   . .   . .   . .
E|-----------------------------------------------------|
B|-----------------------------------------------------|
G|-----------------------------------------------------|
D|-----------------------------------------------------|
A|-----2-----3-----4-----3-----2-2---------------------|
E|-0-1---0-1---0-1---0-1---0-1-------------------------|

  P.M.   . .   . .      .      .          .      .
E|-----------------------------------------------------|
B|-----------------------------------------------------|
G|-----------------------------------------------------|
D|-----------------------------------------------------|
A|-----2-----3-----5\4----5\4----5\4-5\4----5\4----5\4-|
E|-0-1---0-1---1-0-3\2--0-3\2--0-3\2-3\2--0-3\2--0-3\2-|

[Segunda Parte]

Needlework the way
Never you betray
Life of death becoming clearer
Pain monopoly
Ritual misery
Chop your breakfast on a mirror

Taste me, you will see
More is all you need
You're dedicated to
How I'm killing you


[Pré-Refrão]

Come crawling faster
Obey your master
Your life burns faster
Obey your master
Master

[Refrão]

Master of puppets
I'm pulling your strings
Twisting your mind 
And smashing your dreams
Blinded by me
You can't see a thing
Just call my name 
'cause I'll hear you scream
Master, Master
Just call my name 
'cause I'll hear you scream
Master, Master

[Interlúdio 1] Em  D9  C9  A2  B7

Guitarra Base

   Em      D9                  C9
E|-----------------0h2p0-----3-------------------------|
B|-------------3---------3---------3---3-----0---------|
G|-------0---2---2---------2-----0---0---0-------------|
D|-----2---0-------------------------------2-----------|
A|---2-------------------------3-----------------------|
E|-0---------------------------------------------------|

   A9      B7
E|-----------------------------------------------------|
B|-----0-------0-------0-------------------------------|
G|---2-------2-------2---------------------------------|
D|-----------------1-----------------------------------|
A|-0-----0-2-----2-------------------------------------|
E|-----------------------3-----------------------------|

   Em      D9                  C9
E|-----------------0h2p0-----3-------------------------|
B|-------------3---------3---------3---3-----0---------|
G|-------0---2---2---------2-----0---0---0-------------|
D|-----2---0-------------------------------2-----------|
A|---2-------------------------3-----------------------|
E|-0---------------------------------------------------|

   A9      B7
E|-----------------------------------------------------|
B|-----0-------0-------0-------------------------------|
G|---2-------2-------2---------------------------------|
D|-----------------1-----------------------------------|
A|-0-----0-2-----2-------------------------------------|
E|-----------------------3-----------------------------|

Guitarra Solo 1 

E|-----19--15------17--14------------------------------|
B|-17----------17----------15--15-15-------------------|
G|-----------------------------------------------------|
D|-----------------------------------------------------|
A|-----------------------------------------------------|
E|-----------------------------------------------------|

E|-----17--14------15--12------------------------------|
B|-15----------15----------13--13-13-------------------|
G|-----------------------------------------------------|
D|-----------------------------------------------------|
A|-----------------------------------------------------|
E|-----------------------------------------------------|

E|-----15--12------14--12h14p12------------------------|
B|-13----------13----------------16--13----------------|
G|-----------------------------------------------------|
D|-----------------------------------------------------|
A|-----------------------------------------------------|
E|-----------------------------------------------------|

E|--------------------------/14--15--------------------|
B|-12--13--/15--13--16--17-----------------------------|
G|-----------------------------------------------------|
D|-----------------------------------------------------|
A|-----------------------------------------------------|
E|-----------------------------------------------------|

Guitarra Solo 2

E|-----22--19------20--17------------------------------|
B|-20----------20----------19--19-19-------------------|
G|-----------------------------------------------------|
D|-----------------------------------------------------|
A|-----------------------------------------------------|
E|-----------------------------------------------------|

E|-----20--17------19--15------------------------------|
B|-19----------19----------17--17-17-------------------|
G|-----------------------------------------------------|
D|-----------------------------------------------------|
A|-----------------------------------------------------|
E|-----------------------------------------------------|

E|-----19--15------17--15h17p15------------------------|
B|-17----------17----------------19--17----------------|
G|-----------------------------------------------------|
D|-----------------------------------------------------|
A|-----------------------------------------------------|
E|-----------------------------------------------------|

E|-------------------------17--19----------------------|
B|-16--17--19--17--19--20------------------------------|
G|-----------------------------------------------------|
D|-----------------------------------------------------|
A|-----------------------------------------------------|
E|-----------------------------------------------------|

Guitarra Solo 3

E|---------14-15---14-15-17-15-14-19-15-14h15p14\12----|
B|-17---17------------------------------------------13~|
G|-----------------------------------------------------|
D|-----------------------------------------------------|
A|-----------------------------------------------------|
E|-----------------------------------------------------|

E|-------------------15-14-----15-14-------------------|
B|-15b17r---15b17r---------12--------12h15-12~---------|
G|-----------------------------------------------------|
D|-----------------------------------------------------|
A|-----------------------------------------------------|
E|-----------------------------------------------------|

E|-----------------------------------------------------|
B|----------15-----------------------------------------|
G|-12-14-12-14b16---b16r14p12----12--------------------|
D|----------------------------14----14~----------------|
A|-----------------------------------------------------|
E|-----------------------------------------------------|

E|-----------------------------------------------------|
B|-----------------------------------------------------|
G|----12---14-12-11----14-12-11h12p11\9----------------|
D|-12---------------12------------------10~------------|
A|-----------------------------------------------------|
E|-----------------------------------------------------|

E|---------------------------------------15-14-11h12p11|
B|---------------------------------12------------------|
G|---------------------------11-12----12---------------|
D|----9-10--9-10-12-10-12/14---------------------------|
A|-12--------------------------------------------------|
E|-----------------------------------------------------|

E|-------/19-------------------------------------------|
B|-12-10-----------------------------------------------|
G|-----------------------------------------------------|
D|-----------------------------------------------------|
A|-----------------------------------------------------|
E|-----------------------------------------------------|

[Interlúdio 2] Em  D9  C9  A2  B7

   Em      D9                  C9
  P.M. . . . . . .       . .   . . . . . . . .
E|-----------------0h2p0-----3-------------------------|
B|-------------3---------3---------3---3-----0---------|
G|-------0---2---2---------2-----0---0---0-------------|
D|-----2---0-------------------------------2-----------|
A|---2-------------------------3-----------------------|
E|-0---------------------------------------------------|

   A9      B7
  P.M. . . . . . . . . . .
E|-----------------------------------------------------|
B|-----0-------0-------0-------------------------------|
G|---2-------2-------2---------------------------------|
D|-----------------1-----------------------------------|
A|-0-----0-2-----2-------------------------------------|
E|-----------------------3-----------------------------|

   Em      D9                  C9
  P.M. . . . . . .       . .   . . . . . . . .
E|-----------------0h2p0-----3-------------------------|
B|-------------3---------3---------3---3-----0---------|
G|-------0---2---2---------2-----0---0---0-------------|
D|-----2---0-------------------------------2-----------|
A|---2-------------------------3-----------------------|
E|-0---------------------------------------------------|

   A9      B7
  P.M. . . . . . . . . . .
E|-----------------------------------------------------|
B|-----0-------0-------0-------------------------------|
G|---2-------2-------2---------------------------------|
D|-----------------1-----------------------------------|
A|-0-----0-2-----2-------------------------------------|
E|-----------------------3-----------------------------|

  P.M. . . . . . . . . . . . . . .
E|-----------------------------------------------------|
B|-----------------------------------------------------|
G|-----------------------------------------------------|
D|-----------------------------------------------------|
A|-2-2-2-2-2-2-2-2-2-2-2-2-2-2-2-2---------------------|
E|-0-0-0-0-0-0-0-0-0-0-0-0-0-0-0-0---------------------|

[Interlúdio 3]

  P.M. . . . . .     . . . . . . .
E|-----------------------------------------------------|
B|-----------------------------------------------------|
G|-----------------------------------------------------|
D|---------------------------------6-------------------|
A|-4-4-5-4-4-4-5-4-4-4-4-5-4-4-4-5-4-------------------|
E|-2-2-3-2-2-2-3-----2-2-3-2-2-2-3---------------------|

  P.M. . . . . .     . . . . . . .
E|-----------------------------------------------------|
B|-----------------------------------------------------|
G|-----------------------------------------------------|
D|---------------------------------6-------------------|
A|-4-4-5-4-4-4-5-4-4-4-4-5-4-4-4-5-4-------------------|
E|-2-2-3-2-2-2-3-----2-2-3-2-2-2-3---------------------|

[Terceira Parte]

  P.M. . . . . .     . . . . . . .
E|-----------------------------------------------------|
B|-----------------------------------------------------|
G|-----------------------------------------------------|
D|---------------------------------6-------------------|
A|-4-4-5-4-4-4-5-4-4-4-4-5-4-4-4-5-4-------------------|
E|-2-2-3-2-2-2-3-----2-2-3-2-2-2-3---------------------|

  P.M. . . . . .     . . . . . . .
E|-----------------------------------------------------|
B|-----------------------------------------------------|
G|-----------------------------------------------------|
D|---------------------------------6-------------------|
A|-4-4-5-4-4-4-5-4-4-4-4-5-4-4-4-5-4-------------------|
E|-2-2-3-2-2-2-3-----2-2-3-2-2-2-3---------------------|

  P.M. . . . . .     . . . . . . .
E|-----------------------------------------------------|
B|-----------------------------------------------------|
G|-----------------------------------------------------|
D|---------------------------------6-------------------|
A|-4-4-5-4-4-4-5-4-4-4-4-5-4-4-4-5-4-------------------|
E|-2-2-3-2-2-2-3-----2-2-3-2-2-2-3---------------------|

  P.M. . . . . .     . . . . . . .
E|-----------------------------------------------------|
B|-----------------------------------------------------|
G|-----------------------------------------------------|
D|---------------------------------6-------------------|
A|-4-4-5-4-4-4-5-4-4-4-4-5-4-4-4-5-4-------------------|
E|-2-2-3-2-2-2-3-----2-2-3-2-2-2-3---------------------|

E|-----------------------------------------------------|
B|-----------------------------------------------------|
G|-----------------------------------------------------|
D|-----------------------------------------------------|
A|-5--------4------------------------------------------|
E|-3--------2------------------------------------------|

Master, Master
Where’s the dreams 
That I’ve been after?
Master, Master
You promised only lies
Laughter, laughter
All I hear or see is laughter
Laughter, laughter
Laughing at my cries

Fix me!

[Solo]

Parte 1 de 10

E|17p12----------12-17p12----------12-17p12----------12|
B|------13-12-13----------13-12-13----------13-12-13---|
G|-----------------------------------------------------|
D|-----------------------------------------------------|
A|-----------------------------------------------------|
E|-----------------------------------------------------|

E|-15p12----------12-----------------------------------|
B|-------13-12-13--------------------------------------|
G|-----------------------------------------------------|
D|-----------------------------------------------------|
A|-----------------------------------------------------|
E|-----------------------------------------------------|

Parte 2 de 10

E|17p12----------12-17p12----------12-17p12----------12|
B|------13-12-13----------13-12-13----------13-12-13---|
G|-----------------------------------------------------|
D|-----------------------------------------------------|
A|-----------------------------------------------------|
E|-----------------------------------------------------|

Parte 3 de 10

E|-15p12------19-19-19-17-17-17-17-15-15-15-15-14-14-14|
B|-------13/-------------------------------------------|
G|-----------------------------------------------------|
D|-----------------------------------------------------|
A|-----------------------------------------------------|
E|-----------------------------------------------------|

E|-14-17-17-17-17-15-15-15-15-14-14-14-14--------------|
B|----------------------------------------15-15-15-15--|
G|-----------------------------------------------------|
D|-----------------------------------------------------|
A|-----------------------------------------------------|
E|-----------------------------------------------------|

Parte 4 de 10

E|-----------------------17h19\12p10p9-----------------|
B|-15b17rb17~~r17p15p14----------------12p10\----------|
G|-----------------------------------------------------|
D|-----------------------------------------------------|
A|-----------------------------------------------------|
E|-----------------------------------------------------|

Parte 5 de 10

E|-----------------------------------------------------|
B|-----------------------------------------------------|
G|-2b4------------------2-4-4-2-3-4p3p2-2--------------|
D|----------------------------------------4--2-----2h4-|
A|----------------------------------------------4------|
E|-----------------------------------------------------|

Parte 6 de 10

E|-/10--8--7------8--7-------------------7~------------|
B|------------10--------10--8--7--8--10----------------|
G|-----------------------------------------------------|
D|-----------------------------------------------------|
A|-----------------------------------------------------|
E|-----------------------------------------------------|

Parte 7 de 10

E|-7-7-7-7-7-10-8-7-7-10-8-7-7-12-10-8-8-12-10-8-8-----|
B|-----------------------------------------------------|
G|-----------------------------------------------------|
D|-----------------------------------------------------|
A|-----------------------------------------------------|
E|-----------------------------------------------------|

E|-14-12-10-10-14-12-10-10-15-14-12-12-----------------|
B|-----------------------------------------------------|
G|-----------------------------------------------------|
D|-----------------------------------------------------|
A|-----------------------------------------------------|
E|-----------------------------------------------------|

Parte 8 de 10

E|-17-16-14-14-19-17-14-14-17-16-14-14-19-17-14-14-----|
B|-----------------------------------------------------|
G|-----------------------------------------------------|
D|-----------------------------------------------------|
A|-----------------------------------------------------|
E|-----------------------------------------------------|

E|-17-16-14-14-19-17-14-14-17-16-14-14-19-17-14-14-----|
B|-----------------------------------------------------|
G|-----------------------------------------------------|
D|-----------------------------------------------------|
A|-----------------------------------------------------|
E|-----------------------------------------------------|

Parte 9 de 10

E|--------14---------14---------14---------14----------|
B|-17b19------17b19------17b19------17b19--------------|
G|-----------------------------------------------------|
D|-----------------------------------------------------|
A|-----------------------------------------------------|
E|-----------------------------------------------------|

E|-19p14------19p14--14----14--------------------------|
B|--------17---------17b19-14b17-----------------------|
G|-----------------------------------------------------|
D|-----------------------------------------------------|
A|-----------------------------------------------------|
E|-----------------------------------------------------|

Parte 10 de 10

E|--------14--------14---------14---------14-----------|
B|-17b19-----17b19------17b19------17b19---------------|
G|-----------------------------------------------------|
D|-----------------------------------------------------|
A|-----------------------------------------------------|
E|-----------------------------------------------------|

E|--------15---------15---------15---------16----------|
B|-18b20------18b20------18b20------19b21--------------|
G|-----------------------------------------------------|
D|-----------------------------------------------------|
A|-----------------------------------------------------|
E|-----------------------------------------------------|

E|--------17---------17---------18---------18----------|
B|-20b22------20b22------21b13------21b23--------------|
G|-----------------------------------------------------|
D|-----------------------------------------------------|
A|-----------------------------------------------------|
E|-----------------------------------------------------|

E|--------19---------19--22b24-------------------------|
B|-22b24------22b24------------------------------------|
G|-----------------------------------------------------|
D|-----------------------------------------------------|
A|-----------------------------------------------------|
E|-----------------------------------------------------|

[Ponte 1]

  P.M.   . .   . .   . .   . . 
E|-----------------------------------------------------|
B|-----------------------------------------------------|
G|-----------------------------------------------------|
D|-----------------------------------------------------|
A|-----3-----3-----3-----3-----2-2---------------------|
E|-0-0-1-0-0-1-0-0-1-0-0-1-0-0-------------------------|

  P.M.   . .   . .   . .   . . 
E|-----------------------------------------------------|
B|-----------------------------------------------------|
G|-----------------------------------------------------|
D|-----------------------------4-----------------------|
A|-----3-----3-----3-----3-----2-----------------------|
E|-0-0-1-0-0-1-0-0-1-0-0-1-0-0-------------------------|

  P.M.   . .   . .   . .   . . 
E|-----------------------------------------------------|
B|-----------------------------------------------------|
G|-----------------------------------------------------|
D|-----------------------------------------------------|
A|-----3-----3-----3-----3-----2-2---------------------|
E|-0-0-1-0-0-1-0-0-1-0-0-1-0-0-------------------------|

  P.M.   . .   . .   . .   . . 
E|-----------------------------------------------------|
B|-----------------------------------------------------|
G|-----------------------------------------------------|
D|-----------------------------4-----------------------|
A|-----3-----3-----3-----3-----2-----------------------|
E|-0-0-1-0-0-1-0-0-1-0-0-1-0-0-------------------------|

[Ponte 2]

Guitarra 1 - Parte 1 de 4

  P.M. . . . . . . . . . . . . . . . .
E|-----------------------------------------------------|
B|-----------------------------------------------------|
G|-----------------------------------------------------|
D|---------------------------------2-4-5---------------|
A|---------------------------2-3-5-------3-------------|
E|-0-0-0-0-0-0-0-0-0-0-2-3-5---------------------------|

  P.M. . . . . . . . . 
E|-----------------------------------------------------|
B|-----------------------------------------------------|
G|-----------------------------------------------------|
D|-----------------------------------------------------|
A|-3-3-3-2-3-5-3-2-------------------------------------|
E|-----------------3-2---------------------------------|

Guitarra 1 - Parte 2 de 4

  P.M. . . . . . . . . . . . . . . . .
E|-----------------------------------------------------|
B|-----------------------------------------------------|
G|-----------------------------------------------------|
D|---------------------------------2-4-5---------------|
A|---------------------------2-3-5-------3-------------|
E|-0-0-0-0-0-0-0-0-0-0-2-3-5---------------------------|

  P.M. . . . . . . . . 
E|-----------------------------------------------------|
B|-----------------------------------------------------|
G|-----------------------------------------------------|
D|-----------------------------------------------------|
A|-3-3-3-2-3-5-3-2-------------------------------------|
E|-----------------3-2---------------------------------|

Guitarra 1 - Parte 3 de 4

  P.M. . . . . . . . . . . . . . . . .
E|-----------------------------------------------------|
B|-----------------------------------------------------|
G|-----------------------------------------------------|
D|---------------------------------2-4-5---------------|
A|---------------------------2-3-5-------3-------------|
E|-0-0-0-0-0-0-0-0-0-0-2-3-5---------------------------|

  P.M. . . . . . . . . 
E|-----------------------------------------------------|
B|-----------------------------------------------------|
G|-----------------------------------------------------|
D|-----------------------------------------------------|
A|-3-3-3-2-3-5-3-2-------------------------------------|
E|-----------------3-2---------------------------------|

Guitarra 1 - Parte 4 de 4

  P.M. . . . . . . . . . . . . . . . .
E|-----------------------------------------------------|
B|-----------------------------------------------------|
G|-----------------------------------------------------|
D|---------------------------------2-4-5-5-------------|
A|---------------------------2-3-5-------3-------------|
E|-0-0-0-0-0-0-0-0-0-0-2-3-5---------------------------|

  P.M. . . . . . . . . 
E|-----------------------------------------------------|
B|-----------------------------------------------------|
G|-----------------------------------------------------|
D|-----------------------------------------------------|
A|-3-3-3-2-3-5-3-2-----2-------------------------------|
E|-----------------3-2-0-------------------------------|

  P.M. . . . . . . . . 
E|-----------------------------------------------------|
B|-----------------------------------------------------|
G|-----------------------------------------------------|
D|-----------------------------------------------------|
A|-3-3-3-2-3-5-3-2-------------------------------------|
E|-----------------3-2---------------------------------|


Guitarra 2 - Parte 1 de 4

  P.M. . . . . . . . . . . . . . . . .
E|-----------------------------------------------------|
B|-----------------------------------------------------|
G|-----------------------------------------------------|
D|---------------------------------2-4-5---------------|
A|---------------------------2-3-5-------3-------------|
E|-0-0-0-0-0-0-0-0-0-0-2-3-5---------------------------|

  P.M. . . . . . . . . 
E|-----------------------------------------------------|
B|-----------------------------------------------------|
G|-----------------------------------------------------|
D|-----------------------------------------------------|
A|-3-3-3-2-3-5-3-2-------------------------------------|
E|-----------------3-2---------------------------------|

Guitarra 2 - Parte 2 de 4

  P.M. . . . . . . . . . . . . . . . .
E|-----------------------------------------------------|
B|-----------------------------------------------------|
G|-----------------------------------------------------|
D|---------------------------------2-4-5---------------|
A|---------------------------2-3-5-------3-------------|
E|-0-0-0-0-0-0-0-0-0-0-2-3-5---------------------------|

  P.M. . . . . . . . . 
E|-----------------------------------------------------|
B|-----------------------------------------------------|
G|-----------------------------------------------------|
D|-----------------------------------------------------|
A|-3-3-3-2-3-5-3-2-------------------------------------|
E|-----------------3-2---------------------------------|

Guitarra 2 - Parte 3 de 4

  P.M. . . . . . . . . . . . . . . . .
E|-----------------------------------------------------|
B|-----------------------------------------------------|
G|-----------------------------------------------------|
D|-------------------------------4-5-7-9---------------|
A|---------------------------2-3---------7-------------|
E|-0-0-0-0-0-0-0-0-0-0-2-3-5---------------------------|

  P.M. . . . . . . . . 
E|-----------------------------------------------------|
B|-----------------------------------------------------|
G|-----------------------------------------------------|
D|-----------------------------------------------------|
A|-7-7-7-5-7-9-7-5-------------------------------------|
E|-----------------8-7---------------------------------|

Guitarra 2 - Parte 4 de 4

  P.M. . . . . . . . . . . . . . . . .
E|-----------------------------------------------------|
B|-----------------------------------------------------|
G|-----------------------------------------------------|
D|---------------------------------2-4-5-5-------------|
A|---------------------------2-3-5-------3-------------|
E|-0-0-0-0-0-0-0-0-0-0-2-3-5---------------------------|

  P.M. . . . . . . . . 
E|-----------------------------------------------------|
B|-----------------------------------------------------|
G|-----------------------------------------------------|
D|-----------------------------------------------------|
A|-3-3-3-2-3-5-3-2-----2-------------------------------|
E|-----------------3-2-0-------------------------------|

  P.M. . . . . . . . . 
E|-----------------------------------------------------|
B|-----------------------------------------------------|
G|-----------------------------------------------------|
D|-5-5-5-4-5-7-5-4---5---------------------------------|
A|-----------------7-----------------------------------|
E|-----------------------------------------------------|

( [Riff 2 )

[Quarta Parte]

Hell is worth all that
Natural habitat
Just a rhyme without a reason
Never ending maze
Drift on numbered days
Now your life is out of season

I will occupy
I will help you die
I will run through you
Now I rule you too

[Pré-Refrão]

Come crawling faster
Obey your master
Your life burns faster
Obey your master
Master

[Refrão]

Master of puppets
I'm pulling your strings
Twisting your mind 
And smashing your dreams
Blinded by me
You can't see a thing
Just call my name 
'cause I'll hear you scream
Master, Master
Just call my name 
'cause I'll hear you scream
Master, Master

[Final]

Parte 1 de 5

  P.M. . . . . . . .      .
E|-----------------------------------------------------|
B|-----------------------------------------------------|
G|-----------------------------------------------------|
D|-2---------------------------------------------------|
A|-2----------------5/7----8\7-5/7---------------------|
E|-0--0-0-0-0-0-0-0-3/5--0-6\5-3/5---------------------|

  P.M. . . . . . . .
E|-----------------------------------------------------|
B|-----------------------------------------------------|
G|-----------------------------------------------------|
D|-----------------------------------------------------|
A|-------------------5/7-5/7---------------------------|
E|-0-0-0-0-0-0-0-0-0-3/5-3/5---------------------------|

Parte 2 de 5

  P.M. . . . . . . .      .
E|-----------------------------------------------------|
B|-----------------------------------------------------|
G|-----------------------------------------------------|
D|-----------------------------------------------------|
A|-------------------5/7----8\7-5/7--------------------|
E|-0-0-0-0-0-0-0-0-0-3/5--0-6\5-3/5--------------------|

  P.M. . . . . . . .
E|-----------------------------------------------------|
B|-----------------------------------------------------|
G|-----------------------------------------------------|
D|-----------------------------------------------------|
A|-------------------5/7-5/7---------------------------|
E|-0-0-0-0-0-0-0-0-0-3/5-3/5---------------------------|

Parte 3 de 5

  P.M. . . . . . . .      .
E|-----------------------------------------------------|
B|-----------------------------------------------------|
G|-----------------------------------------------------|
D|-----------------------------------------------------|
A|-------------------5/7----8\7-5/7--------------------|
E|-0-0-0-0-0-0-0-0-0-3/5--0-6\5-3/5--------------------|

  P.M. . . . . . . .
E|-----------------------------------------------------|
B|-----------------------------------------------------|
G|-----------------------------------------------------|
D|-----------------------------------------------------|
A|-------------------5/7-5/7---------------------------|
E|-0-0-0-0-0-0-0-0-0-3/5-3/5---------------------------|

Parte 4 de 5

  P.M. . . . . . . .      .
E|-----------------------------------------------------|
B|-----------------------------------------------------|
G|-----------------------------------------------------|
D|-----------------------------------------------------|
A|-------------------5/7----8\7-5/7--------------------|
E|-0-0-0-0-0-0-0-0-0-3/5--0-6\5-3/5--------------------|

  P.M. . . . . . . .
E|-----------------------------------------------------|
B|-----------------------------------------------------|
G|-----------------------------------------------------|
D|-----------------------------------------------------|
A|-------------------5/7-5/7---------------------------|
E|-0-0-0-0-0-0-0-0-0-3/5-3/5---------------------------|

Parte 5 de 5

       P.M     .
E|-----------------------------------------------------|
B|-----------------------------------------------------|
G|-----------------------------------------------------|
D|--------------------2--------------------------------|
A|-5\4----5\4----5\4--2--------------------------------|
E|-3\2--0-3\2--0-3\2--0--------------------------------|
00:00 / 00:00
Other videos of this song
Repeat
Other videos of this song
Composed by Cliff Burton / James Hetfield / Kirk Hammett / Lars Ulrich
114.332 views
  • Simplify chords
    • ½ Tone
    • A
    • Bb
    • B
    • C
    • Db
    • D
    • Eb
    • E
    • F
    • F#
    • G
    • Ab
  • Add to list
    00:00 / 00:00
    Chapters
    • Apresentação / Equipamentos
    • Configuração dos Pedais e Amplificador
    • Tocando a Música
    • Ensinando Introdução
    • Ensinando Primeira Parte
    • Ensinando Pré-Refrão
    • Ensinando Refrão
    • Ensinando Riff 2
    • Ensinando Interlúdio 1
    • Ensinando Interlúdio 2
    • Ensinando Interlúdio 3
    • Ensinando Terceira Parte
    • Ensinando Solo
    • Ensinando Ponte 1
    • Ensinando Ponte 2
    • Ensinando Final da Música
    • Encerramento
    OK