Notificações Amigos pendentes

      Metallica

      Nothing Else Matters

      166.193 reproducciones
      Tono: G
      Introdução 1:
      
      (Violão)
      
          Em
      E|-------------0---------------------------
      B|---------0------0------------------------
      G|-----0--------------0--------------------
      D|-----------------------------------------
      A|-----------------------------------------
      E|-0---------------------------------------
      
      
          Em
      E|-------------0---------------------------
      B|---------0------0------------------------
      G|-----0--------------0--------------------
      D|-----------------------------------------
      A|-----------------------------------------
      E|-0---------------------------------------
      
      
          Em
      E|-------------0---------------------------
      B|---------0------0------------------------
      G|-----0--------------0--------------------
      D|-----------------------------------------
      A|-----------------------------------------
      E|-0---------------------------------------
      
      
      E|----------0------7--7----------7p0-------
      B|-------0-----0---------0-----0-----0-----
      G|----0---------------------0-----------0--
      D|-----------------------------------------
      A|-----------------------------------------
      E|--0-----------------0--------------------
      
      
      E|-0-----7--8--7h8/5--7--5p3/2-------------
      B|-------0--0---------0---------5--5-----5-
      G|----0-------------------------------5----
      D|-----------------------------------------
      A|---------------------------------0-------
      E|-0---------------------------------------
      
      
                                          C
      E|-2p0------------------0--0---0---0-------
      B|------5-----------5------5---5---5-------
      G|---------5-----5---------5---5---5-----5-
      D|-----------------------------------------
      A|------------0------------0---2---3--3----
      E|-----------------------------------------
      
      
                               D9
      E|-------3p0--------0---0------------------
      B|-5----------5-----5---7------------7-----
      G|----5----------5--5---7-------7--------7-
      D|-----------------------------------------
      A|------------------3---5---5--------------
      E|-----------------------------------------
      
      
                            Harm. .    .
      
      E|-0h5p0-------------------------12--------
      B|--------7p0--0h5-----12---12--------0----
      G|---------------------12----------------0-
      D|-----------------------------------------
      A|-----------------------------------------
      E|------------------0----------------------
      
      
          Em
      E|-------------0---------------------------
      B|---------0------0------------------------
      G|-----0--------------0--------------------
      D|-----------------------------------------
      A|-----------------------------------------
      E|-0---------------------------------------
      
      
      Introdução 2:
      
      (Violão)
      
          Em              D        C
      E|--------------7--------------------------
      B|--------------8--------7-------5---------
      G|-----------9-----------7-------5---------
      D|--------9-----------7--------5-----------
      A|-----7-----------5--------3--------------
      E|-0---------------------------------------
      
      
          D      C          G      B7
      E|-----5-------3---------3-----------------
      B|-----7-------5---------3--------4--------
      G|---7------5----------4----------0--------
      D|-----------------------------1-----------
      A|-5------3-----------------2--------------
      E|-------------------3---------------------
      
      
          Em
      E|----0-----------------0------------------
      B|-0-----0-----------0-----0---------------
      G|----------0-----0-----------0------------
      D|-----------------------------------------
      A|-----------------------------------------
      E|-0-----------0---------------------------
      
      
      (Guitarra)
      
          Em                  D         C
      E|---------------7-----------5---------3---
      B|---------------8-----------7---------5---
      G|------------9-----------7---------5------  (2x)
      D|---------9-------------------------------
      A|------7--------------5---------3---------
      E|-0---------------------------------------
      
      
          Em                  D           C
      E|---------------7-------------------------
      B|------------8--------10----------8-------
      G|---------9--------------11---------9-----
      D|------9--------------------12--------10--
      A|-----------------------------------------
      E|-0---------------------------------------
      
      
          G         B7           Em
      E|-----------------------------------------
      B|-8---------7-----------------------------
      G|---7----------8--------------------------
      D|------9----------7----7\5~~--------------
      A|-----------------------------------------
      E|-----------------------------------------
      
      
      
      Primeira Parte:
      (Violão)
      
      
            Em             D          C9
      E|-------3---0------2----------------------
      B|-----0-------0---------3-----3----3------
      G|---0-----0-----0---------2p0----0--------
      D|------------------0--0-------------------
      A|-----------------------------3-----------
      E|-0----------------------------------3-2--
      
      
          Em                 D    D4    C9
      E|-------3----0-------2----3-----3---------
      B|-----0--------0------------3-----3-------
      G|---0------0-----0------------0-----0-----
      D|--------------------0--0-----------------
      A|-------------------------------3---------
      E|-0---------------------------------------
      
      
          G     B7        Em
      E|-----3-2---2-----0-----0-----------0-----
      B|-----3-0-----0-0-----0---0-------0---0---
      G|---0---2-----------0-------0---0-------0-
      D|-----------------------------------------
      A|-------2-2-------------------------------
      E|-3---------------0-----------0-----------
      
      
      E|-----------------------------------------
      B|-----------------------------------------
      G|-----------------------------------------
      D|-----------------------------------------
      A|-----------------------------------------
      E|-3-2-------------------------------------
      
      
      E|-------3---0------2----------------------
      B|-----0-------0---------3-----3----3------
      G|---0-----0-----0---------2p0----0--------
      D|------------------0--0-------------------
      A|-----------------------------3-----------
      E|-0----------------------------------3-2--
      
      
          Em                 D    D4    C9
      E|-------3----0-------2----3-----3---------
      B|-----0--------0------------3-----3-------
      G|---0------0-----0------------0-----0-----
      D|--------------------0--0-----------------
      A|-------------------------------3---------
      E|-0---------------------------------------
      
      
          G     B7        Em            C   A
      E|-----3-2---2-----0-----0-------0---------
      B|-----3-0-----0-0-----0---0-----1---2-----
      G|---0---2-----------0-------0---0---2-----
      D|-------------------------------2---2-----
      A|-3-----2-2---------------------3---0-----
      E|-3---------------0-----------------------
      
      
      (Guitarra)
      
      
          Em              D     D4     C9
      E|-----------3-----2-----3------0---------
      B|--------0----------3-----3----3--3------
      G|-----0--------0------2-----2--0---------
      D|----------------------------------------
      A|------------------------------3---------
      E|-0----------------------------------3-2-
      
      
          Em              D     D4     C9
      E|-----------3-----2-----3----------------
      B|--------0----------3-----3----3---------
      G|-----0--------0------2-----2--0--0------
      D|----------------------------------------
      A|------------------------------3---------
      E|-0----------------------------------3-2-
      
      
          Em              D     D4     C5(9)
      E|-----------3-----2-----3------3---------
      B|--------0----------3-----3----3--3------
      G|-----0--------0------2-----2--0-----0---
      D|----------------------------------------
      A|------------------------------3---------
      E|-0--------------------------------------
      
      
          G5     B7     Em
      E|-----3--2--2h3-0-----0-----------0------
      B|-----3--0----------0---0-------0---0----
      G|---0----2--------0-------0---0----------
      D|----------------------------------------
      A|--------2-------------------------------
      E|-3-------------0-----------0---------3-2
      
      
      
      Em                     D  D4  C9
         So close no matter how    far
      Em                         D    D4  C9
         Couldn't be much more from the heart
      Em                    D  D4  C5(9)
         Forever trusting who we   are
      G5      B7           Em
         And nothing else matters
      
      (Riff 1)
      Em                 D     D4  C9
         Never opened myself this way
      Em                          D    D4  C9
         Life is ours, we live it our way
      Em                          D   D4  C5(9)
         All these words I don't just    say
      G5      B7           Em
         And nothing else matters
      
      (Riff 2)
      Em                     D   D4  C9
         Trust I seek and I find in you
      Em                   D    D4   C9
         Every day for us something new
      Em                  D    D4    C5(9)
         Open mind for a different view
      G5      B7           Em      ( C  A )
         And nothing else matters
      Passagem:
      
          C       A
      E|----------------------------------------
      B|-1-------2------------------------------
      G|-0-------2------------------------------
      D|-2-------2------------------------------
      A|-3-------0------------------------------
      E|----------------------------------------
      
      
      
      Primeiro Refrão:
      (Violão)
      
          D         D4  D  D5(9) D  C    A
      E|-2---2-2-2-3---2--0-----2--0----0--------
      B|-3---3-3-3-3---3--3-----3--1----2--------
      G|-2---2-2-2-2---2--2-----2--0----2--------  (2x)
      D|-0---0-0-0-0---0--0-----0--2----2--------
      A|---------------------------3----0--------
      E|-----------------------------------------
      
      
          D
      E|-2--2--2---------------------------------
      B|-3--3--3---------------------------------
      G|-2--2--2---------------------------------
      D|-0--0--0---------------------------------
      A|-----------------------------------------
      E|-----------------------------------------
      
      
      (Guitarra)
      
          D5              C       A
      E|-----------------------------------------
      B|-3---------------1-------2---------------
      G|-2---------------0-------2--------------- (2x)
      D|-0---------------2-------2---------------
      A|-----------------3-------0---------------
      E|-----------------------------------------
      
      
         P.M.         .  .         .  .
      
      E|-----------------------------------------
      B|-----------------------------------------
      G|---------------------------------7/9~~---
      D|-------5~~----------7~~-------7----------
      A|----7------------7---------5-------------
      E|-0------------0--------------------------
      
      
      
      D         D4   D        D5(9)   D   C  A
         Never ca___red for what    they do
      D         D4   D        D5(9)   D    C   A
         Never ca___red for what    they know
      D          Em
         But I know
      
      Em                     D  D4  C9
         So close no matter how    far
      Em                         D    D4  C9
         Couldn't be much more from the heart
      Em                    D  D4  C5(9)
         Forever trusting who we   are
      G5      B7           Em     ( C  A )
         And nothing else matters
      
      Segundo Refrão:
      
      D         D4   D        D5(9)   D   C  A
         Never ca___red for what    they do
      D         D4   D        D5(9)   D    C   A
         Never ca___red for what    they know
      D          Em
         But I know
      Primeiro Solo:
      
      (Violão)
      
      
      E|-12-----14-----15-----17-----8------8---------8----
      B|----12-----12-----12-----12----5------5-----5---5--
      G|---------------------------------5------5-5--------
      D|---------------------------------------------------
      A|---------------------------------------------------
      E|---------------------------------------------------
      
      
      E|-----8--------0------0----0-----0------0-7---------
      B|---5---5--------1------1----3-----3--------0-------
      G|-5-------5\0------0-----------2--------------0-----
      D|---------------------------------------------------
      A|---------------------------------------------------
      E|---------------------------------------------------
      
      
      E|-7-0------------0----------------------------------
      B|-----0--------0------------------------------------
      G|-------0----0--------------------------------------
      D|---------------------------------------------------
      A|---------------------------------------------------
      E|----------0----------------------------------------
      
      
      E|-12-----14-----15-----17-----8------8---------8----
      B|----12-----12-----12-----12----5------5-----5---5--
      G|---------------------------------5------5-5--------
      D|---------------------------------------------------
      A|---------------------------------------------------
      E|---------------------------------------------------
      
      
      E|-----8--------0------0----0-----0------0-7---------
      B|---5---5--------1------1----3-----3--------0-------
      G|-5-------5\0------0-----------2--------------0-----
      D|---------------------------------------------------
      A|---------------------------------------------------
      E|---------------------------------------------------
      
      
      E|-7-0------------0----------------------------------
      B|-----0--------0---0--------------------------------
      G|-------0----0-------0------------------------------
      D|---------------------------------------------------
      A|---------------------------------------------------
      E|----------0------------3-2-------------------------
      
      
      (Guitarra)
      
      
      E|-15----------17----------19----------20------------
      B|------17----------17----------17----------17-------
      G|---------------------------------------------------
      D|---------------------------------------------------
      A|---------------------------------------------------
      E|---------------------------------------------------
      
      
      E|-12------------------------------------------------
      B|------13~------------------------------------------
      G|---------------------------------------------------
      D|---------------------------------------------------
      A|---------------------------------------------------
      E|---------------------------------------------------
      
      
      E|-/12-----------/14-------------------12----12------
      B|------13------------15----------12-------------12--
      G|----------12------------14-------------------------
      D|---------------------------------------------------
      A|---------------------------------------------------
      E|---------------------------------------------------
      
      
      E|-15----------17----------19----------20------------
      B|------17----------17----------17----------17-------
      G|---------------------------------------------------
      D|---------------------------------------------------
      A|---------------------------------------------------
      E|---------------------------------------------------
      
      
      E|-12------------------------------------------------
      B|------13~------------------------------------------
      G|---------------------------------------------------
      D|---------------------------------------------------
      A|---------------------------------------------------
      E|---------------------------------------------------
      
      
      E|-/12-----------------------------------------------
      B|------13-------------------------------------------
      G|----------12-------12---12h14~~--12h14-14b16r14-12~
      D|----------------------x----------------------------
      A|---------------------------------------------------
      E|---------------------------------------------------
      
      
      E|---------------------------------------------------
      B|-12------12------12--------------------------------
      G|-14b16---14b16---14b16r14h12---------------12------
      D|-----------------------------14~-12-12h14------14~~
      A|---------------------------------------------------
      E|---------------------------------------------------
      
      
      
      (Riff 1)
      Em                 D     D4  C9
         Never opened myself this way
      Em                          D    D4  C9
         Life is ours, we live it our way
      Em                          D   D4  C5(9)
         All these words I don't just    say
      G5      B7           Em
         And nothing else matters
      
      (Riff 2)
      Em                     D   D4  C9
         Trust I seek and I find in you
      Em                   D    D4   C9
         Every day for us something new
      Em                  D    D4    C5(9)
         Open mind for a different view
      G5      B7           Em      ( C  A )
         And nothing else matters
      
      Terceiro Refrão:
      
      D         D4   D        D5(9)   D   C  A
         Never car___ed for what    they say
      D         D4   D       D5(9)   D    C   A
         Never ca___red for games  they play
      D         D4   D        D5(9)   D   C  A
         Never ca___red for what    they do
      D         D4   D        D5(9)   D    C   A
         Never ca___red for what    they know
      D          Em
         And I know, Yeah!
      
      Segundo Solo: E5  D5  C5  ( F#5  G#5  F#5 )
                    E5  D5  C5  ( F#5  G#5  F#5 )
      
                     E5  D5  C5  G5  B5  E5
      E|---------------------------------------------------
      B|-15------15----------------------------------------
      G|-14b16~--14b16r14--12~~--12p11--12p11--9--11--7/9~-
      D|---------------------------------------------------
      A|---------------------------------------------------
      E|---------------------------------------------------
      
      
      E|-----------------12--------12----------------------
      B|------------------------------15p12----12----------
      G|-12-14-12-14b16------14b16----------15----15-14----
      D|---------------------------------------------------
      A|---------------------------------------------------
      E|---------------------------------------------------
      
      
      E|---------------------------------------------------
      B|--------------14---14-13-12~~----------------------
      G|-14h15p14p12--14---14-13-12~~----------------------
      D|---------------------------------------------------
      A|---------------------------------------------------
      E|---------------------------------------------------
      
      
      E|-/15--14------15--14--15/17--15--14h15p14-12-------
      B|----------12----------------------------------12---
      G|---------------------------------------------------
      D|---------------------------------------------------
      A|---------------------------------------------------
      E|---------------------------------------------------
      
      
      E|-15-14---------------------------------------------
      B|-------12~~-------------15-------------------------
      G|---------------12-14-12-14b16r14p12----12-14b16----
      D|------------------------------------14-------------
      A|---------------------------------------------------
      E|---------------------------------------------------
      
      
      E|----12---------------------------------------------
      B|-12----15--15b17r15p12--15b17~~r--------------------
      G|---------------------------------------------------
      D|---------------------------------------------------
      A|---------------------------------------------------
      E|---------------------------------------------------
      
      
      E|---------------------------------------------------
      B|-12h15p12------7b1/4r7--5h7p5~~--------------------
      G|---------------------------------------------------
      D|---------------------------------------------------
      A|---------------------------------------------------
      E|---------------------------------------------------
      
      
      E|---------------------------------------------------
      B|--------------------7---8----5~~-------------------
      G|---------------------------------------------------
      D|---------------------------------------------------
      A|---------------------------------------------------
      E|---------------------------------------------------
      
        So close no matter how far
      
      
      E|---------------------------------------------------
      B|------------------------7----8\3~~----------------
      G|---------------------------------------------------
      D|---------------------------------------------------
      A|---------------------------------------------------
      E|---------------------------------------------------
      
        Couldn't be much more from the heart
      
      
      E|---------------------------------------------------
      B|-------------------7--8---12~~~~-------------------
      G|---------------------------------------------------
      D|---------------------------------------------------
      A|---------------------------------------------------
      E|---------------------------------------------------
      
        Forever trusting who we   are
        And nothing else matters
      
      (Violão)
      
      Variação da Primeira Parte:
      
          G     B7
      E|-----3-2---2-----------------------------
      B|-----3-0---0-----------------------------
      G|---0---2---2-----------------------------
      D|-----------------------------------------
      A|-------2---2-----------------------------
      E|-3---------------------------------------
      
      
      Parte Final:
      
          Em
      E|-0-----------0---------------------------
      B|---------0------0------------------------
      G|-----0--------------0--------------------
      D|-----------------------------------------
      A|-----------------------------------------
      E|-0---------------------------------------
      
      
      E|----------0------7--7--------7p0---------
      B|-------0-----0---------0-----0-----0-----
      G|----0---------------------0-----------0--
      D|-----------------------------------------
      A|-----------------------------------------
      E|--0-----------------0--------------------
      
      
      E|-0-----7--8--7h8/5--7--5p3/2-0-----------
      B|-------0--0---------0--------------------
      G|----0------------------------------------
      D|-----------------------------------------
      A|-----------------------------------------
      E|-0---------------------------------------
      
      
      ---
      
      Riff 1:
      
      (Guitarra 1)
      
          Em      D   D4  C9     Em        D   D4  C9
      E|---------------------------------------------------
      B|-8~------10--12--8~---------------10--12--13~------
      G|---------------------------------------------------
      D|---------------------------------------------------
      A|---------------------------------------------------
      E|---------------------------------------------------
      
      
          Em      D   D4  C5(9)  G         B7  Em
      E|---------------------------------------------------
      B|-12~-----10--12--8~---------------7~-----5~--------
      G|---------------------------------------------------
      D|---------------------------------------------------
      A|---------------------------------------------------
      E|---------------------------------------------------
      
      
      (Guitarra 2)
      
          Em      D   D4  C9     Em        D   D4  C9
      E|---------------------------------------------------
      B|---------------------------------------------------
      G|-9~------11--12--9~---------------11--12--12~------
      D|---------------------------------------------------
      A|---------------------------------------------------
      E|---------------------------------------------------
      
      
          Em      D   D4  C5(9)  G         B7  Em
      E|---------------------------------------------------
      B|---------------------------------------------------
      G|-12~-----11--12--9~---------------9~---------------
      D|---------------------------------------------------
      A|---------------------------------------------------
      E|---------------------------------------------------
      
      
      Riff 1:
      
          Em                        D   D4  C9
      E|---------------------------------------------------
      B|---------------------------------------------------
      G|---------------------------------------------------
      D|---------------------------------------------------
      A|--------10---10/12--12\10--9--10--7~---------------
      E|-0---------------------------------------------3-2-
      
      
          Em                        D   D4  C9
      E|---------------------------------------------------
      B|---------------------------------------------------
      G|---------------------------------------------------
      D|---------------------------------------------------
      A|--------10---10/12--12\10--9~--5~--5~--------------
      E|-0---------------------------------------------3-2-
      
      
          Em                        D   D4  C5(9)
      E|---------------------------------------------------
      B|---------------------------------------------------
      G|---------------------------------------------------
      D|---------------------------------------------------
      A|--------10---10/12--12\10--9--10--7~---------------
      E|-0---------------------------------------------3---
      
      
          G5          B7          Em
      E|---------------------------------------------------
      B|---------------------------------------------------
      G|---------------------------------------------------
      D|-------------4-----------2-------------------------
      A|-----2-3-2---2---2-3-2---2-------------------------
      E|-3-----------------------0-------------------------
      
        Composición: James Hetfield / Lars UlrichColaboración y revision:
        • João Gabriel
        • v.inny
        • Iron Maiden fan
        •  ̉3яυ ~
        • +5

        Comentarios 122

        140 .
        • daniel daniel: Em 08/09/2016 20:50

          No vídeo não ensina a base do solo.

        • vinicius vinicius: Em 17/08/2016 20:34

          Quando o solo é bom até arrepia

        • nelio nelio: Em 27/06/2016 21:04

          Olá, a cifra não bate com o vídeo. São diferentes!

        • robin robin: Em 24/06/2016 23:29

          +gabrielpg.pg: nossa eles precisam tocar mais devagar do que aquilo kkk

        • gabrielpg.pg gabrielpg.pg: Em 10/01/2016 00:44

          quetal na video-AULA vcs ENSINEM inves de tocar de vagar?

        • Eduardo Eduardo: Em 05/01/2016 01:33

          Eu não consegui tocar... Sou aprendiz no violão... :(

          • helel helel: Em 12/05/2016 17:53

            Tô fazendo uma versão simplificada,

        • Eduardo Eduardo: Em 05/01/2016 01:33

          Eu não consegui tocar... Sou aprendiz no violão... :(

        • Miguel Miguel: Em 21/09/2015 13:41

          a cifra de violao ta diferente da que aparece na video aula

        • jvfig jvfig: Em 24/06/2015 17:06

          Impossível acreditar que músicas sertanejas universitárias tenham video aula e Nothing Else Metters não tem

          • ezio ezio: Em 20/08/2015 20:39

            oque?
            como não tem video aula, em baixo do nome da banda.

        140 cancelar
        0:00 / 0:00

        Capitulos

        1. Tocando a Música
        2. Dicas Iniciais / Equipamentos
        3. Configurações do Amplificador
        4. Acordes da Introdução - Violão
        5. Acordes da Introdução - Guitarra
        6. Tocando a Introdução
        7. Introdução - Parte 1 de 11
        8. Introdução - Parte 2 de 11
        9. Introdução - Parte 3 de 11
        10. Introdução - Parte 4 de 11
        11. Introdução - Parte 5 de 11
        12. Introdução - Parte 6 de 11
        13. Introdução - Parte 7 de 11
        14. Introdução - Parte 8 de 11
        15. Introdução - Parte 9 de 11
        16. Introdução - Parte 10 de 11
        17. Introdução - Parte 11 de 11
        18. Introdução - Guitarra
        19. Acordes e Dicas para a Primeira Parte
        20. Tocando a Introdução
        21. Primeira Parte: Violão - Parte 1 de 4
        22. Primeira Parte: Violão - Parte 2 de 4
        23. Primeira Parte: Violão - Parte 3 de 4
        24. Primeira Parte: Violão - Parte 4 de 4
        25. Primeira Parte: Violão - Parte 4 de 4 (variação)
        26. Primeira Parte: Guitarra Base
        27. Riff 1 - Guitarra Solo 1
        28. Riff 1 - Guitarra Solo 2
        29. Riff 2 - Guitarra Solo
        30. Acordes do Refrão - Violão
        31. Acordes do Refrão - Guitarra
        32. Tocando o Refrão
        33. Ensinando o Refrão - Violão
        34. Ensinando o Refrão - Guitarra
        35. Dicas para as repetições e o Solo
        36. Tocando as repetições e o Solo
        37. Primeiro Solo: Violão - Parte 1 de 4
        38. Primeiro Solo: Violão - Parte 2 de 4
        39. Primeiro Solo: Violão - Parte 3 de 4
        40. Primeiro Solo: Violão - Parte 4 de 4
        41. Solo: Guitarra - Parte 1 de 5
        42. Solo: Guitarra - Parte 2 de 5
        43. Solo: Guitarra - Parte 3 de 5
        44. Solo: Guitarra - Parte 4 de 5
        45. Solo: Guitarra - Parte 5 de 5
        46. Dicas para as repetições e para o Solo Final
        47. Tocando as repetições e o Solo Final
        48. Solo Final - Parte 1 de 5
        49. Solo Final - Parte 2 de 5
        50. Solo Final - Parte 3 de 5
        51. Solo Final - Parte 4 de 5
        52. Solo Final - Parte 5 de 5
        53. Final: Violão
        54. Encerramento
        55. Ficha Técnica
        2 versões de contrabajo reproducciones contribuición y correción
        1 versão de batería reproducciones contribuición y correción
        2 versões de armónica reproducciones contribuición y correción
        play/pausefechar subir/bajar velocidad
        6ª cuerda E5ª cuerda A4ª cuerda D3ª cuerda G2ª cuerda B1ª cuerda E
          acordes
          publicidad
          cerrar
          ok