Enviar cifraEntrar

Nothing Else Matters

Metallica

Acordes: Principal
reproducciones 175.765
Tono: G
Introdução 1:

(Violão)


     Em
E|-------------0---------------------------|
B|---------0------0------------------------|
G|-----0--------------0--------------------|
D|-----------------------------------------|
A|-----------------------------------------|
E|-0---------------------------------------|


     Em
E|-------------0---------------------------|
B|---------0------0------------------------|
G|-----0--------------0--------------------|
D|-----------------------------------------|
A|-----------------------------------------|
E|-0---------------------------------------|


     Em
E|-------------0---------------------------|
B|---------0------0------------------------|
G|-----0--------------0--------------------|
D|-----------------------------------------|
A|-----------------------------------------|
E|-0---------------------------------------|


E|----------0------7--7---------7p0--------|
B|-------0-----0---------0------0----0-----|
G|----0---------------------0---0-------0--|
D|-----------------------------------------|
A|-----------------------------------------|
E|--0-----------------0--------------------|


    Em
E|-0-----7--8--7h8/5--7--5/2--0------------|
B|-------0--0---------0---------5--5-----5-|
G|----0-------------------------------5----|
D|-----------------------------------------|
A|---------------------------------0-------|
E|-0---------------------------------------|


    Am
E|-0--------2p0------------------0--0---0-|
B|-5-----5-------5------------5-----5---5-|
G|----5-------------5-----5---------5---5-|
D|----------------------------------------|
A|-0-------------------0------------0---2-|
E|----------------------------------------|


    C
E|-0-------------3p0--------0-------------|
B|-5-------5----------5-----5-------------|
G|-5-----5----5----------5--5-------------|
D|----------------------------------------|
A|-3--3---------------------3-------------|
E|----------------------------------------|


    D9
E|-0-----------0h5p0----------------------|
B|-7--------7--------7p0--0h5-------------|
G|-7-----7--------------------------------|
D|----------------------------------------|
A|-5--5-----------------------------------|
E|----------------------------------------|


 H.N  .   .   . 

E|------------12--------------------------|
B|--------12------0-----------------------|
G|----12-------------0--------------------|
D|----------------------------------------|
A|----------------------------------------|
E|-0--------------------------------------|


    Em
E|-------------0---------------------------|
B|---------0------0------------------------|
G|-----0--------------0--------------------|
D|-----------------------------------------|
A|-----------------------------------------|
E|-0---------------------------------------|


    Em              D        C
E|-----------------------------------------|
B|--------------8\--------7\-------5-------|
G|-----------9---\--------7\-------5-------|
D|--------9------\-----7---\-----5---------|
A|-----7---------\--5------\--3------------|
E|-0---------------------------------------|


    G       B7
E|-----------------------------------------|
B|------3--------4-------------------------|
G|------4--------2-------------------------|
D|---5--------4----------------------------|
A|---------2-------------------------------|
E|-3---------------------------------------|


    Em
E|----0------------------------------------|
B|-0-----0---------------------------------|
G|----------0------------------------------|
D|-----------------------------------------|
A|-----------------------------------------|
E|-0---------------------------------------|



(Guitarra)


     Em                  D         C
E|---------------7-----------5---------3---|
B|---------------8-----------7---------5---|
G|------------9-----------7---------5------| (2x)
D|---------9-------------------------------|
A|------7--------------5---------3---------|
E|-0---------------------------------------|


     Em                  D           C
E|---------------7-------------------------|
B|------------8--------10----------8-------|
G|---------9--------------11---------9-----|
D|------9--------------------12--------10--|
A|-----------------------------------------|
E|-0---------------------------------------|


     G         B7           Em
E|-----------------------------------------|
B|-8---------7-----------------------------|
G|---7----------8--------------------------|
D|------9----------7----7\5~~--------------|
A|-----------------------------------------|
E|-----------------------------------------|



Primeira Parte:
(Violão)


     Em              D    D4      C9
E|-------3---0------2----3-------0---------|
B|-----0-------0-----------3-------3-------|
G|---0-----0-----0------------0------0-----|
D|------------------0--0---------3---------|
A|-----------------------------------------|
E|-0-----------------------------------3-2-|


    Em               D          C9
E|-------3---0------2----------------------|
B|-----0-------0---------3-----3----3------|
G|---0-----0-----0---------2p0----0--------|
D|------------------0--0-------------------|
A|-----------------------------3-----------|
E|-0----------------------------------3-2--|


     Em                D    D4    C9
E|-------3----0-------2----3-----3---------|
B|-----0--------0------------3-----3-------|
G|---0------0-----0------------0-----0-----|
D|--------------------0--0-----------------|
A|-------------------------------3---------|
E|-0---------------------------------------|


    G     B7        Em
E|-----3-2---2-----0-----0-----------0-----|
B|-----3-0-----0-------0---0-------0---0---|
G|---0---2-------2---0-------0---0---------|
D|-----------------------------------------|
A|-------2-2-------------------------------|
E|-3---------------0-----------0--------3-2|


E|-------3---0------2----------------------|
B|-----0-------0---------3-----3----3------|
G|---0-----0-----0---------2p0----0--------|
D|------------------0--0-------------------|
A|-----------------------------3-----------|
E|-0----------------------------------3-2--|



 

    Em                 D    D4    C9
E|-------3----0-------2----3-----3---------|
B|-----0--------0------------3-----3-------|
G|---0------0-----0------------0-----0-----|
D|--------------------0--0-----------------|
A|-------------------------------3---------|
E|-0---------------------------------------|


     G     B7       Em
E|-----3-2---2-----0-----0----------0------|
B|-----3-0-----0-------0---0------0---0----|
G|---0---2-------2---0-------0--0----------|
D|-----------------------------------------|
A|-3-----2-2-------------------------------|
E|-3---------------0--------------------3-2|


(Guitarra)

    Em              D     D4     C9
E|-----------3-----2-----3------0---------|
B|--------0----------3-----3----3--3------|
G|-----0--------0------2-----2--0---------|
D|----------------------------------------|
A|------------------------------3---------|
E|-0----------------------------------3-2-|


    Em              D     D4     C9
E|-----------3-----2-----3----------------|
B|--------0----------3-----3----3---------|
G|-----0--------0------2-----2--0--0------|
D|----------------------------------------|
A|------------------------------3---------|
E|-0----------------------------------3-2-|


     Em              D     D4     C9
E|-----------3-----2-----3------3---------|
B|--------0----------3-----3----3--3------|
G|-----0--------0------2-----2--0-----0---|
D|----------------------------------------|
A|------------------------------3---------|
E|-0--------------------------------------|


    G5     B7     Em
E|-----3--2--2h3-0-----0-----------0------|
B|-----3--0----------0---0-------0---0----|
G|---0----2--------0-------0---0----------|
D|----------------------------------------|
A|--------2-------------------------------|
E|-3-------------0-----------0---------3-2|



Em                     D      D4  C9
   So close no matter how    far
Em                         D       C9
   Couldn't be much more from the heart
Em                    D  D4  C9
   Forever trusting who we   are
G5      B7           Em
   And nothing else matters

(Riff 1)
Em                 D     D4  C9
   Never opened myself this way
Em                          D       C9
   Life is ours, we live it our way
Em                          D   D4  C9
   All these words I don't just    say
G5      B7           Em
   And nothing else matters

(Riff 2)
Em                     D   D4  C9
   Trust I seek and I find in you
Em                   D         C9
   Every day for us something new
Em                  D    D4    C9
   Open mind for a different view
G5      B7           Em      ( C  A )
   And nothing else matters

Passagem:

    D5               C       A
E|----------------------------------------|
B|-3---------------1-------2--------------|
G|-2---------------0-------2--------------|
D|-0---------------2-------2--------------|
A|-----------------3-------0--------------|
E|----------------------------------------|



Primeiro Refrão:
(Guitarra)


     D5              C       A
E|-----------------------------------------|
B|-3---------------1-------2---------------|
G|-2---------------0-------2---------------|(2x)
D|-0---------------2-------2---------------|
A|-----------------3-------0---------------|
E|-----------------------------------------|


   P.M.         .  .         .  .

E|-----------------------------------------|
B|-----------------------------------------|
G|---------------------------------7/9~~---|
D|-------5~~----------7~~-------7----------|
A|----7------------7---------5-------------|
E|-0------------0--------------------------|



D         D4   D        D9          C  A
   Never ca___red for what    they do
D         D4   D        D9           C   A
   Never ca___red for what    they know
D          Em
   But I know


Segunda Parte:

Em                     D  D4  C9
   So close no matter how    far
Em                         D        C9
   Couldn't be much more from the heart
Em                    D  D4  C9
   Forever trusting who we   are
G5      B7           Em     ( C  A )
   And nothing else matters


Segundo Refrão:

D         D4   D        D9          C  A
   Never ca___red for what    they do
D         D4   D        D9           C   A
   Never ca___red for what    they know
D          Em
   But I know

Primeiro Solo:
(Violão)


E|-12------14------15------17------------------------|
B|----12------12------12------12---------------------|
G|---------------------------------------------------|
D|---------------------------------------------------|
A|-0-----0-0-----0-0-----0-0-------------------------|
E|---------------------------------------------------|


E|-8------8-------------8-----------------------------|
B|---5------5---------5---5---------------------------|
G|-----5------5-----5-------5-------------------------|
D|----------------------------5\----------------------|
A|-0-------------0------------------------------------|
E|----------------------------------------------------|


E|-0---------0-----0--------0-------------------------|
B|---1---------1-----3--------3-----------------------|
G|-----0---------------2------------------------------|
D|-----------------0-----0----------------------------|
A|-3------3-------------------------------------------|
E|----------------------------------------------------|


E|-0h7-------7p0-----------0--------------------------|
B|------0--------0-------0---0------------------------|
G|--------0--------0---0-------0----------------------|
D|----------------------------------------------------|
A|----------------------------------------------------|
E|-0-----------------0--------------------------------|



(Guitarra)



E|-15----------17----------19----------20------------|
B|------17----------17----------17----------17-------|
G|---------------------------------------------------|
D|---------------------------------------------------|
A|---------------------------------------------------|
E|---------------------------------------------------|


E|-12------------------------------------------------|
B|------13~------------------------------------------|
G|---------------------------------------------------|
D|---------------------------------------------------|
A|---------------------------------------------------|
E|---------------------------------------------------|


E|-/12-----------/14-------------------12----12------|
B|------13------------15----------12-------------12--|
G|----------12------------14-------------------------|
D|---------------------------------------------------|
A|---------------------------------------------------|
E|---------------------------------------------------|


E|-15----------17----------19----------20------------|
B|------17----------17----------17----------17-------|
G|---------------------------------------------------|
D|---------------------------------------------------|
A|---------------------------------------------------|
E|---------------------------------------------------|


E|-12------------------------------------------------|
B|------13~------------------------------------------|
G|---------------------------------------------------|
D|---------------------------------------------------|
A|---------------------------------------------------|
E|---------------------------------------------------|

 


E|-/12-----------------------------------------------|
B|------13-------------------------------------------|
G|----------12-------12---12h14~~--12h14-14b16r14-12~|
D|----------------------x----------------------------|
A|---------------------------------------------------|
E|---------------------------------------------------|


E|---------------------------------------------------|
B|-12------12------12--------------------------------|
G|-14b16---14b16---14b16r14h12---------------12------|
D|-----------------------------14~-12-12h14------14~~|
A|---------------------------------------------------|
E|---------------------------------------------------|


(Riff 1)
Em                 D     D4  C9
   Never opened myself this way
Em                          D    C9
   Life is ours, we live it our way
Em                          D   D4  C9
   All these words I don't just    say
G5      B7           Em
   And nothing else matters

(Riff 2)
Em                     D   D4  C9
   Trust I seek and I find in you
Em                   D         C9
   Every day for us something new
Em                  D    D4    C9
   Open mind for a different view
G5      B7           Em      ( C  A )
   And nothing else matters


Terceiro Refrão:

D         D4   D        D9          C  A
   Never car___ed for what    they say
D         D4   D       D9           C   A
   Never ca___red for games  they play
D         D4   D        D9          C  A
   Never ca___red for what    they do
D         D4   D        D9           C   A
   Never ca___red for what    they know
D          Em
   And I know, Yeah!

Segundo Solo: E5  D5  C5  ( F#5  G#5  F#5 )
              E5  D5  C5  ( F#5  G#5  F#5 )



                E5  D5  C5  G5  B5  E5
E|---------------------------------------------------|
B|-15------15----------------------------------------|
G|-14b16~--14b16r14--12~~--12p11--12p11--9--11--7/9~-|
D|---------------------------------------------------|
A|---------------------------------------------------|
E|---------------------------------------------------|


E|-----------------12--------12----------------------|
B|------------------------------15p12----12----------|
G|-12-14-12-14b16------14b16----------15----15-14----|
D|---------------------------------------------------|
A|---------------------------------------------------|
E|---------------------------------------------------|


E|---------------------------------------------------|
B|--------------14---14-13-12~~----------------------|
G|-14h15p14p12--14---14-13-12~~----------------------|
D|---------------------------------------------------|
A|---------------------------------------------------|
E|---------------------------------------------------|


E|-/15--14------15--14--15/17--15--14h15p14-12-------|
B|----------12----------------------------------12---|
G|---------------------------------------------------|
D|---------------------------------------------------|
A|---------------------------------------------------|
E|---------------------------------------------------|


E|-15-14---------------------------------------------|
B|-------12~~-------------15-------------------------|
G|---------------12-14-12-14b16r14p12----12-14b16----|
D|------------------------------------14-------------|
A|---------------------------------------------------|
E|---------------------------------------------------|


E|----12---------------------------------------------
B|-12----15--15b17r15p12--15b17~~r-------------------|
G|---------------------------------------------------|
D|---------------------------------------------------|
A|---------------------------------------------------|
E|---------------------------------------------------|


E|---------------------------------------------------|
B|-12h15p12------7b1/4r7--5h7p5~~--------------------|
G|---------------------------------------------------|
D|---------------------------------------------------|
A|---------------------------------------------------|
E|---------------------------------------------------|


E|---------------------------------------------------|
B|--------------------7---8----5~~-------------------|
G|---------------------------------------------------|
D|---------------------------------------------------|
A|---------------------------------------------------|
E|---------------------------------------------------|


  So close no matter how far



E|---------------------------------------------------|
B|------------------------7----8\3~~-----------------|
G|---------------------------------------------------|
D|---------------------------------------------------|
A|---------------------------------------------------|
E|---------------------------------------------------|


  Couldn't be much more from the heart



E|---------------------------------------------------|
B|-------------------7--8---12~~~~-------------------|
G|---------------------------------------------------|
D|---------------------------------------------------|
A|---------------------------------------------------|
E|---------------------------------------------------|


  Forever trusting who we   are
  And nothing else matters

(Violão)

Variação da Primeira Parte:


     G     B7
E|-----3-2---2-----------------------------|
B|-----3-0---0-----------------------------|
G|---0---2---2-----------------------------|
D|-----------------------------------------|
A|-------2---2-----------------------------|
E|-3---------------------------------------|



Parte Final:


     Em
E|-0-----------0---------------------------|
B|---------0------0------------------------|
G|-----0--------------0--------------------|
D|-----------------------------------------|
A|-----------------------------------------|
E|-0---------------------------------------|


E|----------0------7--7--------7p0---------|
B|-------0-----0---------0-----0----0------|
G|----0---------------------0--0------0----|
D|-----------------------------------------|
A|-----------------------------------------|
E|--0-----------------0--------------------|


E|-0-----7--8--7h8/5--7--5/2--0------------|
B|-------0--0---------0--------------------|
G|----0------------------------------------|
D|-----------------------------------------|
A|-----------------------------------------|
E|-0---------------------------------------|


Riff 1:

(Guitarra 1)


     Em      D   D4  C9     Em        D   D4  C9
E|---------------------------------------------------
B|-8~------10--12--8~---------------10--12--13~------
G|---------------------------------------------------
D|---------------------------------------------------
A|---------------------------------------------------
E|---------------------------------------------------


     Em      D   D4  C5(9)  G         B7  Em
E|---------------------------------------------------
B|-12~-----10--12--8~---------------7~-----5~--------
G|---------------------------------------------------
D|---------------------------------------------------
A|---------------------------------------------------
E|---------------------------------------------------



(Guitarra 2)


     Em      D   D4  C9     Em        D   D4  C9
E|---------------------------------------------------
B|---------------------------------------------------
G|-9~------11--12--9~---------------11--12--12~------
D|---------------------------------------------------
A|---------------------------------------------------
E|---------------------------------------------------


     Em      D   D4  C5(9)  G         B7  Em
E|---------------------------------------------------
B|---------------------------------------------------
G|-12~-----11--12--9~---------------9~---------------
D|---------------------------------------------------
A|---------------------------------------------------
E|---------------------------------------------------



Riff 2:
Guitarra Solo:


     Em                        D   D4  C9
E|---------------------------------------------------|
B|---------------------------------------------------|
G|---------------------------------------------------|
D|---------------------------------------------------|
A|--------10---10/12--12\10--9--10--7~---------------|
E|-0--------------------------------------------3-2--|


     Em                        D   D4  C9
E|---------------------------------------------------|
B|---------------------------------------------------|
G|---------------------------------------------------|
D|---------------------------------------------------|
A|--------10---10/12--12\10--9~--5~--5~--------------|
E|-0---------------------------------------------3-2-|


     Em                        D   D4  C5(9)
E|---------------------------------------------------|
B|---------------------------------------------------|
G|---------------------------------------------------|
D|---------------------------------------------------|
A|--------10---10/12--12\10--9--10--7~---------------|
E|-0---------------------------------------------3---|


     G5          B7          Em
E|---------------------------------------------------|
B|---------------------------------------------------|
G|---------------------------------------------------|
D|-------------4-----------2-------------------------|
A|-----2-3-2---2---2-3-2---2-------------------------|
E|-3-----------------------0-------------------------|
  • 1
  • 2
  • 3
  • 4
  • 5
  • 6
  • 7
  • 8
  • 9
  • 10
  • 11
  • 12

    0 comentarios

      mostrar mas comentarios
      00:00 / 00:00
      outros vídeos desta música
      repetirqualidadeautomática
      • automática
      Outro vídeos desta música
        Capítulos
        • Tocando a Música
        • Dicas Iniciais / Equipamentos
        • Configurações do Amplificador
        • Acordes da Introdução - Violão
        • Acordes da Introdução - Guitarra
        • Tocando a Introdução
        • Introdução - Parte 1 de 11
        • Introdução - Parte 2 de 11
        • Introdução - Parte 3 de 11
        • Introdução - Parte 4 de 11
        • Introdução - Parte 5 de 11
        • Introdução - Parte 6 de 11
        • Introdução - Parte 7 de 11
        • Introdução - Parte 8 de 11
        • Introdução - Parte 9 de 11
        • Introdução - Parte 10 de 11
        • Introdução - Parte 11 de 11
        • Introdução - Guitarra
        • Acordes e Dicas para a Primeira Parte
        • Tocando a Introdução
        • Primeira Parte: Violão - Parte 1 de 4
        • Primeira Parte: Violão - Parte 2 de 4
        • Primeira Parte: Violão - Parte 3 de 4
        • Primeira Parte: Violão - Parte 4 de 4
        • Primeira Parte: Violão - Parte 4 de 4 (variação)
        • Primeira Parte: Guitarra Base
        • Riff 1 - Guitarra Solo 1
        • Riff 1 - Guitarra Solo 2
        • Riff 2 - Guitarra Solo
        • Acordes do Refrão - Violão
        • Acordes do Refrão - Guitarra
        • Tocando o Refrão
        • Ensinando o Refrão - Violão
        • Ensinando o Refrão - Guitarra
        • Dicas para as repetições e o Solo
        • Tocando as repetições e o Solo
        • Primeiro Solo: Violão - Parte 1 de 4
        • Primeiro Solo: Violão - Parte 2 de 4
        • Primeiro Solo: Violão - Parte 3 de 4
        • Primeiro Solo: Violão - Parte 4 de 4
        • Solo: Guitarra - Parte 1 de 5
        • Solo: Guitarra - Parte 2 de 5
        • Solo: Guitarra - Parte 3 de 5
        • Solo: Guitarra - Parte 4 de 5
        • Solo: Guitarra - Parte 5 de 5
        • Dicas para as repetições e para o Solo Final
        • Tocando as repetições e o Solo Final
        • Solo Final - Parte 1 de 5
        • Solo Final - Parte 2 de 5
        • Solo Final - Parte 3 de 5
        • Solo Final - Parte 4 de 5
        • Solo Final - Parte 5 de 5
        • Final: Violão
        • Encerramento
        • Ficha Técnica
        00:00 / 00:00
        automática
        • automática
        cerrarplay/pause subir/bajar velocidad
          acordes
          cerrar
          OK
          Feedback