Cifra Club

Life And Death

Michael Giacchino

Cifrado: Principal (guitarra y guitarra eléctrica)
Selo Cifra Club: esta cifra foi revisada para atender aos critérios oficiais da nossa Equipe de Qualidade.
tono: Bb
intro (originally piano):
   Bb       Dm         Bb       Dm         Eb       Dm         Eb       Dm F
E|---------------------------------------------------------------------------|
B|-6--------6----------6--------6----------8--------6----------8--------6--1-|
G|-7--------7----------7--------7----------8--------7----------8--------7--2-|
D|-8--------7----------8--------7----------8--------7----------8--------7--3-|
A|----------5-------------------5----------6--------5----------6--------5----|
E|-6-------------------6---------------------------------------------------1-|

intro lead (originally violin):

E|---------------------------------------------------------------------------|
B|---------------------------------------------------------------------------|
G|-----------------------7-/10~~---------------------------------------------|
D|---------------------------------------------------------------------------|
A|------------5-/8~~~~~------------------------------------------------------|
E|---------------------------------------------------------------------------|

verse:

E|------------5-------------------5------------------------------------------------------|
B|-6--6-6---6--6-------6--6-6---6--6-------8--------------6---6---6---8-------------6--1-|
G|-7-7-7-7--7----------7-7-7-7--7----------8-8-10-8-10-8--7-8---8---8-8-8-10-8-10-8-7--2-|
D|-8--------7----------8--------7----------8--------------7-----------8-------------7--3-|
A|----------5-------------------5----------6--------------5-----------6-------------5----|
E|-6-------------------6---------------------------------------------------------------1-|
Otros videos de esta canción
    15 exhibiciones
      • ½ Tono
      • A
      • Bb
      • B
      • C
      • Db
      • D
      • Eb
      • E
      • F
      • F#
      • G
      • Ab
    • Agregar a la lista

    Afinación de cifrado

    Afinador online

      OK