Cifra Club

Billie Jean

Michael Jackson

Tab de bajo: Principal
Introdução:
   F#m     F#m6/9  F#m7    F#m6/9
G|---------------------------------------------------
D|-4---2-4-2-------4---2-4-2-------------------------
A|---4-------4-2-4---4-------4-2-4------------------- (6x)
E|---------------------------------------------------

Primeira parte:
   F#m     F#m6/9  F#m7    F#m6/9
G|---------------------------------------------------
D|-4---2-4-2-------4---2-4-2-------------------------
A|---4-------4-2-4---4-------4-2-4-------------------
E|---------------------------------------------------

   F#m     F#m6/9  F#m7    F#m6/9
G|---------------------------------------------------
D|-4---2-4-2-------4---2-4-2-------------------------
A|---4-------4-2-4---4-------4-2-4-------------------
E|---------------------------------------------------

   Bm
G|-4---2-4-------4---2-4-----------------------------
D|---4-----4-2-4---4-----4-2-------------------------
A|---------------------------4-----------------------
E|---------------------------------------------------

   F#m     F#m6/9  F#m7    F#m6/9
G|---------------------------------------------------
D|-4---2-4-2-------4---2-4-2-------------------------
A|---4-------4-2-4---4-------4-2-4-------------------
E|---------------------------------------------------

   Bm
G|-4---2-4-------4---2-4-----------------------------
D|---4-----4-2-4---4-----4-2-------------------------
A|---------------------------4-----------------------
E|---------------------------------------------------

   F#m     F#m6/9  F#m7    F#m6/9
G|---------------------------------------------------
D|-4---2-4-2-------4---2-4-2-------------------------
A|---4-------4-2-4---4-------4-2-4-------------------
E|---------------------------------------------------

She was more like a beauty queen
From a movie scene

I said don't mind
But what do you mean
I am the one
Who will dance on the floor in the round

She said I am the one
Who will dance on the floor in the round

   F#m     F#m6/9  F#m7    F#m6/9
G|---------------------------------------------------
D|-4---2-4-2-------4---2-4-2-------------------------
A|---4-------4-2-4---4-------4-2-4-------------------
E|---------------------------------------------------

   F#m     F#m6/9  F#m7    F#m6/9
G|---------------------------------------------------
D|-4---2-4-2-------4---2-4-2-------------------------
A|---4-------4-2-4---4-------4-2-4-------------------
E|---------------------------------------------------

   Bm
G|-4---2-4-------4---2-4-----------------------------
D|---4-----4-2-4---4-----4-2-------------------------
A|---------------------------4-----------------------
E|---------------------------------------------------

   F#m     F#m6/9  F#m7    F#m6/9
G|---------------------------------------------------
D|-4---2-4-2-------4---2-4-2-------------------------
A|---4-------4-2-4---4-------4-2-4-------------------
E|---------------------------------------------------

(...)
She told me her name was Billie Jean
As she caused a scene

Then every head turned
With eyes that dreamed of being the one
Who will dance on the floor in the round


Segunda parte:
   D         F#m     D         F#m     D         F#m
G|---------------------------------------------------
D|-------2-3-4-------------2-3-4-------------2-3-4---
A|-5-5-5-----------0-5-5-5-----------0-5-5-5---------
E|-------------2-2---------------2-2-----------------

         D         C#
G|---------------------------------------------------
D|---------------------------------------------------
A|-----0-5-5-5-5-0-4-4-4-4-4-4-4---------------------
E|-2-2-----------------------------------------------

(...)
People always told me:
- Be careful what you do
- And don't go around breaking young girl's hearts

And mother always told me:
- Be careful of who you love
- Be careful of what you do
- Cause the lie becomes the truth


Refrão:
   F#m     F#m6/9  F#m7    F#m6/9
G|---------------------------------------------------
D|-4---2-4-2-------4---2-4-2-------------------------
A|---4-------4-2-4---4-------4-2-4-------------------
E|---------------------------------------------------

   F#m     F#m6/9  F#m7    F#m6/9
G|---------------------------------------------------
D|-4---2-4-2-------4---2-4-2-------------------------
A|---4-------4-2-4---4-------4-2-4-------------------
E|---------------------------------------------------

   Bm
G|-4---2-4-------4---2-4-----------------------------
D|---4-----4-2-4---4-----4-2-------------------------
A|---------------------------4-----------------------
E|---------------------------------------------------

   F#m     F#m6/9  F#m7    F#m6/9
G|---------------------------------------------------
D|-4---2-4-2-------4---2-4-2-------------------------
A|---4-------4-2-4---4-------4-2-4-------------------
E|---------------------------------------------------

   Bm
G|-4---2-4-------4---2-4-----------------------------
D|---4-----4-2-4---4-----4-2-------------------------
A|---------------------------4-----------------------
E|---------------------------------------------------

   F#m     F#m6/9  F#m7    F#m6/9
G|---------------------------------------------------
D|-4---2-4-2-------4---2-4-2-------------------------
A|---4-------4-2-4---4-------4-2-4-------------------
E|---------------------------------------------------

(...)
Billie Jean is not my lover
She's just a girl
Who claims that I am the one
But the kid is not my son

She says I am the one
But the kid is not my son


Terceira parte:
   F#m     F#m6/9  F#m7    F#m6/9
G|---------------------------------------------------
D|-4---2-4-2-------4---2-4-2-------------------------
A|---4-------4-2-4---4-------4-2-4-------------------
E|---------------------------------------------------

   F#m     F#m6/9  F#m7    F#m6/9
G|---------------------------------------------------
D|-4---2-4-2-------4---2-4-2-------------------------
A|---4-------4-2-4---4-------4-2-4-------------------
E|---------------------------------------------------

   Bm
G|-4---2-4-------4---2-4-----------------------------
D|---4-----4-2-4---4-----4-2-------------------------
A|---------------------------4-----------------------
E|---------------------------------------------------

   F#m     F#m6/9  F#m7    F#m6/9
G|---------------------------------------------------
D|-4---2-4-2-------4---2-4-2-------------------------
A|---4-------4-2-4---4-------4-2-4-------------------
E|---------------------------------------------------

   Bm
G|-4---2-4-------4---2-4-----------------------------
D|---4-----4-2-4---4-----4-2-------------------------
A|---------------------------4-----------------------
E|---------------------------------------------------

   F#m     F#m6/9  F#m7    F#m6/9
G|---------------------------------------------------
D|-4---2-4-2-------4---2-4-2-------------------------
A|---4-------4-2-4---4-------4-2-4-------------------
E|---------------------------------------------------

(...)
For forty days and for forty nights
Law was on her side
But who can stand
When she's in demand her schemes and plans

Cause we danced on the floor in the round

So take my strong advice
Just remember to always think twice
(Do think twice)


   F#m     F#m6/9  F#m7    F#m6/9
G|---------------------------------------------------
D|-4---2-4-2-------4---2-4-2-------------------------
A|---4-------4-2-4---4-------4-2-4-------------------
E|---------------------------------------------------

   F#m     F#m6/9  F#m7    F#m6/9
G|---------------------------------------------------
D|-4---2-4-2-------4---2-4-2-------------------------
A|---4-------4-2-4---4-------4-2-4-------------------
E|---------------------------------------------------

   Bm
G|-4---2-4-------4---2-4-----------------------------
D|---4-----4-2-4---4-----4-2-------------------------
A|---------------------------4-----------------------
E|---------------------------------------------------

   F#m     F#m6/9  F#m7    F#m6/9
G|---------------------------------------------------
D|-4---2-4-2-------4---2-4-2-------------------------
A|---4-------4-2-4---4-------4-2-4-------------------
E|---------------------------------------------------

(...)



Quarta parte:
   D         F#m         D         D
G|---------------------------------------------------
D|-------2-3-4-----4---2-------2-3-4-------2---------
A|-5-5-5-------------4---5-5-5-----------4-----------
E|-------------2-2-------------------2-2-------------

   D         F#m         D       C#
G|---------------------------------------------------
D|-------2-3-4-----4---2-----------------------------
A|-5-5-5-------------4---5-5-5-5-4-4-4-4-4-4-4-4-----
E|-------------2-2-----------------------------------


Refrão:
   F#m     F#m6/9  F#m7    F#m6/9
G|---------------------------------------------------
D|-4---2-4-2-------4---2-4-2-------------------------
A|---4-------4-2-4---4-------4-2-4-------------------
E|---------------------------------------------------

   F#m     F#m6/9  F#m7    F#m6/9
G|---------------------------------------------------
D|-4---2-4-2-------4---2-4-2-------------------------
A|---4-------4-2-4---4-------4-2-4-------------------
E|---------------------------------------------------

   Bm
G|-4---2-4-------4---2-4-----------------------------
D|---4-----4-2-4---4-----4-2-------------------------
A|---------------------------4-----------------------
E|---------------------------------------------------

   F#m     F#m6/9  F#m7    F#m6/9
G|---------------------------------------------------
D|-4---2-4-2-------4---2-4-2-------------------------
A|---4-------4-2-4---4-------4-2-4-------------------
E|---------------------------------------------------

(...)


   F#m     F#m6/9  F#m7    F#m6/9
G|---------------------------------------------------
D|-4---2-4-2-------4---2-4-2-------------------------
A|---4-------4-2-4---4-------4-2-4-------------------
E|---------------------------------------------------

   F#m     F#m6/9  F#m7    F#m6/9
G|---------------------------------------------------
D|-4---2-4-2-------4---2-4-2-------------------------
A|---4-------4-2-4---4-------4-2-4-------------------
E|---------------------------------------------------

   Bm
G|-4---2-4-------4---2-4-----------------------------
D|---4-----4-2-4---4-----4-2-------------------------
A|---------------------------4-----------------------
E|---------------------------------------------------

   F#m     F#m6/9  F#m7    F#m6/9
G|---------------------------------------------------
D|-4---2-4-2-------4---2-4-2-------------------------
A|---4-------4-2-4---4-------4-2-4-------------------
E|---------------------------------------------------

   Bm
G|-4---2-4-------4---2-4-----------------------------
D|---4-----4-2-4---4-----4-2-------------------------
A|---------------------------4-----------------------
E|---------------------------------------------------

   F#m     F#m6/9  F#m7    F#m6/9
G|---------------------------------------------------
D|-4---2-4-2-------4---2-4-2-------------------------
A|---4-------4-2-4---4-------4-2-4-------------------
E|---------------------------------------------------


Sessão do riff:
   F#m     F#m6/9  F#m7    F#m6/9
G|---------------------------------------------------
D|-4---2-4-2-------4---2-4-2-------------------------
A|---4-------4-2-4---4-------4-2-4-------------------  (4x)
E|---------------------------------------------------

   Bm
G|-4---2-4-------4---2-4-----------------------------
D|---4-----4-2-4---4-----4-2-------------------------
A|---------------------------4-----------------------
E|---------------------------------------------------

   F#m     F#m6/9  F#m7    F#m6/9
G|---------------------------------------------------
D|-4---2-4-2-------4---2-4-2-------------------------
A|---4-------4-2-4---4-------4-2-4-------------------
E|---------------------------------------------------


Refrão:
   F#m     F#m6/9  F#m7    F#m6/9
G|---------------------------------------------------
D|-4---2-4-2-------4---2-4-2-------------------------
A|---4-------4-2-4---4-------4-2-4-------------------
E|---------------------------------------------------

   F#m     F#m6/9  F#m7    F#m6/9
G|---------------------------------------------------
D|-4---2-4-2-------4---2-4-2-------------------------
A|---4-------4-2-4---4-------4-2-4-------------------
E|---------------------------------------------------

   Bm
G|-4---2-4-------4---2-4-----------------------------
D|---4-----4-2-4---4-----4-2-------------------------
A|---------------------------4-----------------------
E|---------------------------------------------------

   F#m     F#m6/9  F#m7    F#m6/9
G|---------------------------------------------------
D|-4---2-4-2-------4---2-4-2-------------------------
A|---4-------4-2-4---4-------4-2-4-------------------
E|---------------------------------------------------
00:00 / 00:00
Otros videos de esta canción
Repetir
Otros videos de esta canción
Composición de Michael Jackson
Colaboración y revisión:
6.533 vistas

0 comentarios

Ver todos los comentarios

¿Lograste tocar?

33 Tocaron 1 Aún no

¡Graba un video tocando Billie Jean y envíanoslo!

00:00 / 00:00
Capítulos
  • Início
  • Tocando a música
  • Tocando Introdução
  • Ensinando Introdução
  • Tocando Primeira Parte
  • Ensinar Primeira Parte
  • Tocando Segunda Parte
  • Ensinando Segunda Parte
  • Tocando Quarta Parte
  • Ensinando Quarta Parte
  • Tocando Refrão
  • Ensinando Refrão
  • Tocando Secção do Riff
  • Ensinando Secção do Riff
  • Encerramento
OK