Cifra Club

Smooth Criminal

Michael Jackson

Cifrado: Para-violao-solo (guitarra y guitarra eléctrica)
Acompaña nuestras novedades de Cifra Club en español.
¡Sigue nuestro perfil en Instagram!
tono: D
(Sexta Corda em D)

E|-------------------17--||-------------------------------|
B|-----------------------||-------------------------------|
G|-------------------14--||*------------------------------|
D|-----------------------||*-----7-7-7-7-5-7-9--9-----7-9-|
A|-----------------------||------7-7-7-7-5-7-9--9-----7-9-|
D|-----------------------||------7-7-7-7-5-7-9--9-----7-9-|

                               4x   
-------------------------------||-------------------------------|
-------------------------------||-------------------------------|
------------------------------*||*-----2-2-2-2-0-2-4--4-----2-4-|
--10--10--x--9-10-9--5--x--7--*||*-----2-2-2-2-0-2-4--4-----2-4-|
--10--10--x--9-10-9--5--x--7---||---0--------------0------------|
--10--10--x--9-10-9--5--x--7---||-------------------------------|

                            4x    
----------------------------||---------0------------------0-|
----------------------------||-----------3------------------|
--5--5-----4-5-4--0-----2--*||*--2-2-2---2--2-------2-2-2---|
--5--5-----4-5-4--0-----2--*||*--3-------3--3-------3-------|
--0------------0------------||------------------------------|
----------------------------||---3-------------3------------|

                            3x  
----------------------------||--------0------------0-0-0-0-|
--3------------0------------||----------3----------3-------|
-----2-----2-2----0--0--2--*||--2-2-2---2--2-------2-------|
-----3------------0--0--0--*||--3-------3--3-------3-------|
----------------------------||-----------------------------|
--3------------5------------||--3-------------3----3-------|

--3--0-----0--3--0--3--5--||--------8-8-8-8-7--3-----3-3-|
--3--3--------3--3--3-----||--------5-5-5-5-0--0---------|
--1--1--------1--1--1-----||*-------5-5-5-5-0--0---------|
--------------------------||*----------------------------|
--------------------------||---0-------------------------|
--2-----------2-----2-----||----------------5------------|

--5------------7----------|-----8-8-8-8-8-8-7--3-----3-3-|
--6--6-----6-6-8--8-------|---------5-5-5-5-0--0---------|
--5------------7----------|---------5-5-5-5-0--0---------|
--------------------------|------------------------------|
--------------------------|--0---------------------------|
--3------------5----------|-----------------5------------|

--5------------7-----7--8---||---------0------------------0-|
--6--6--L--6-6-9--9--9--9---||-----------3------------------|
--5------------7--7--7--7--*||*--2-2-2---2--2-------2-2-2---|
------------------9--------*||*--3-------3--3-------3-------|
---------------7------------||------------------------------|
--3-------------------------||---3-------------3------------|

----------------------------||--0--------0--------0-----|
--3------------0------------||--3--1--3-----------3--1--|
-----2-----2-2----0--0--2--*||--1-----1-----------1-----|
-----3------------0--0--0--*||--------0-----------------|
----------------------------||--------------------------|
--3------------5------------||--2-----------------2-----|

-----0--------0-------------|-------------------||
--3--------1---------1-0----|-------------------||
--1----------------------2--|-------------------||
--0-------------------------|-------------------||
----------------------------|--0----------------||
----------------------------|-------------------||
Composición de Michael Jackson
Colaboración y revisión:
  • Marcos Pirito
201 vistas
    • ½ Tono
    • A
    • Bb
    • B
    • C
    • Db
    • D
    • Eb
    • E
    • F
    • F#
    • G
    • Ab
  • Agregar a la lista

    0 comentarios

    Ver todos los comentarios

    ¿Lograste tocar?

    0 Tocaron 2 Aún no

    ¡Graba un video tocando Smooth Criminal y envíanoslo!

    00:00 / 00:00
    Outros vídeos desta música
    Repetir Calidad Automático
    Outros vídeos desta música
    00:00 / 00:00
    Automático
    OK