Cifra Club

Smooth Criminal

Michael Jackson

Tab de bajo: Principal
Acompaña nuestras novedades de Cifra Club en español.
¡Sigue nuestro perfil en Instagram!
This is imported from the alien ant farm section

This is the verse.

G|--------------------------|
D|--------------------------|
A|---------22-0h233-33-2----|
E|-555-3h5---------------3-5|

Then he plays this right before the chorus

G|---------------|
D|---------------|
A|---------------|
E|-11-1-0--0-3-5-|

"Annie are you ok, but your jealous" kind of a bridge there

He plays basically the same pattern as the pre-chorus for that. Just listen to figure it out.

The Chorus goes like this.

G|--------------------|
D|--------3----3----5-|
A|--------------------|
E|-1-1-0h1--0h1--0h3--|
           
Repeats itself until "you've been hit by..."
which is just 

G|--------|
D|--------|
A|--------|
E|-00--00-|
and then it goes back to the verse
Composición de Michael Jackson
Colaboración y revisión:
  • Paulo Knorr
771 vistas

0 comentarios

Ver todos los comentarios

¿Lograste tocar?

5 Tocaron 2 Aún no

¡Graba un video tocando Smooth Criminal y envíanoslo!

00:00 / 00:00
Outros vídeos desta música
Repetir Calidad Automático
Outros vídeos desta música
00:00 / 00:00
Automático
OK