Cifra Club

Long Way Down

Michael Penn

Cifrado: Principal (guitarra y guitarra eléctrica)
tono: D (con acordes en la forma de C) Capotraste en 2ª casa
From: * (mberg)
Date: 23 Aug 1995 23:54:38 GMT


Capo on 2nd (you can pronounce that any way you like)
Chords are given (named) by open (no capo) position.

Please excuse my chord names, I know what I play I just don't
know what to call it!

E7*      C/E     Bsomthing
076750   x20010  x10033


C
Oh man,
                        Am
Look what the cat drug in
                E7*
It's got the dress, though the colors gone
F                            F7
that I gave my one true love on....

C         C/E
Oh don't look in those eyes,
Bsomthing            Am            F
bluer than blue, her rule's on the rise
E7*
and if I wear apathy's crown
Am              D7
don't call me highness,
F       E  E7   Am
it's a long way down


Bridge
             E7*
Now I would suppose
                 Am
That I'm not the only one
          G      G7
One never knows
E
But I got a feeling she's been     ]
F                                  ] x3
sleeping with the whole wide world ]

F                 G          Am      G7 -last time through


Tab.....some

    C

E---------0----0-------0-----0-----------------------------|
B-------1----1-------1----1--------------------------------|
G-------0----0-------0----0--------------------------------|
D--0-2h------------2------------0-2h--0----0---------------|
A----------------------------------------3b-----3b---------|
E----------------------------------------------------------|

   Am


E-----0--0--0--0----------------0--0--0--0-----------------|
B-----1--1--1--1----------------1--1--1--1-----------------|
G-----2-----2-------------------2-----2--------------------|
D-----2-----2-------------------2-----2--------------------|
A--0-------------------0--3b--0---------------------0--3b--|
E-----------------0 3h-------------------------0 3h--------|

     E7*                                  F


E-----------0--strum--------0--strum----------1--strum-----|
B-----------5---------------5-----------------1------------|
G-----------7---------------7-----------------2------------|
D-----------6---------------6-----------------3------------|
A-----------7---------------7-----------------3------------|
E--0--0--0------------0--0----------------1---1------------|


                F7

E-------1--1-----1-----------------------------------------|
B-------1--------4-----------------------------------------|
G--1 2h----------2-----------------------------------------|
D-------------3--------------------------------------------|
A----------------------------------------------------------|
E----------------------------------------------------------|

Continue like this.  I'll finish this eventually.

Enjoy-----MBerg
00:00 / 00:00
Otros videos de esta canción
Repetir
Otros videos de esta canción
Compositor no encontrado.
10 vistas
    • ½ Tono
    • A
    • Bb
    • B
    • C
    • Db
    • D
    • Eb
    • E
    • F
    • F#
    • G
    • Ab
  • Agregar a la lista

    0 comentarios

    Ver todos los comentarios

    ¿Lograste tocar?

    0 Tocaron 0 Aún no

    ¡Graba un video tocando Long Way Down y envíanoslo!

    00:00 / 00:00
    OK