Cifra Club

Amiga da Minha Irmã

Michel Teló

Tablatura: Principal
reproducciones 1.171
Tono: A# (con acordes en la forma de A) Capo en 1ª casa
Intro: Bm  A  Bm  A

                      D5(9)
Quando a campainha toca
                         A
Vou correndo abrir a porta
                    D5(9)
Ela vem toda arrumada
                                 A
Pra ir pra balada com a minha irmã

                   D5(9)
Faz escova no cabelo
                      A
E eu olhando no espelho
                    D5(9)
Ela já sai me olhando
                               A
Tirando o excesso do batom vermelho

Pré-refrão:

 Bm
Já tá querendo ir comigo pra balada
  C#m
Ela só tem dezoito e eu já tenho vinte e seis
 D                       Bm              E
Tá me provocando, me deixando sem controle

Refrão 2x:

    Bm
Ela é amiga da minha irmã
                 D
Não quero nem saber
              A
Eu vou pra cima, pra cima

    Bm
Ela é amiga da minha irmã
                 D
Não quero nem saber
               A
Se ela é novinha, novinha

Intro: Bm  A  Bm  A

                      D5(9)
Quando a campainha toca
                         A
Vou correndo abrir a porta
                    D5(9)
Ela vem toda arrumada
                                 A
Pra ir pra balada com a minha irmã

                   D5(9)
Faz escova no cabelo
                      A
E eu olhando no espelho
                    D5(9)
Ela já sai me olhando
                               A
Tirando o excesso do batom vermelho

Pré-refrão:

 Bm
Já tá querendo ir comigo pra balada
C#m
Ela só tem dezoito e eu já tenho vinte e seis
 D                       Bm              E
Tá me provocando, me deixando sem controle

Refrão Final:

    Bm
Ela é amiga da minha irmã
                 D
Não quero nem saber
                        A
Eu vou pra cima, pra cima
    Bm
Ela é amiga da minha irmã
                 D
Não quero nem saber
               A
Se ela é novinha, novinha

    Bm
Ela é amiga da minha irmã
                 D
Não quero nem saber
                        A
Eu vou pra cima, pra cima
    Bm
Ela é amiga da minha irmã
                 D
Não quero nem saber
               A
Se ela é novinha, novinha

    Bm
Ela é amiga da minha irmã
                 D
Não quero nem saber
                        A
Eu vou pra cima, pra cima
    Bm
Ela é amiga da minha irmã
                 D
Não quero nem saber
               A
Se ela é novinha, novinha

(repete intro)

Intro:

1ª parte:
            Bm
E|----------2--x-x--2--x-x--2--x-x--2------|
B|----------3--x-x--3--x-x--3--x-x--3------|
G|----------4--x-x--4--x-x--4--x-x--4------|
D|-----2----4--x-x--4--x-x--4--x-x---------|
A|-2h4---2--2--x-x--2--x-x--2--x-x---------|
E|-------------x-x-----x-x-----x-x---------|
            ↓  ↑ ↓  ↑  ↓ ↑  ↓  ↑ ↓  ↑

2ª parte:
               A
E|-------------0--x-x--0--x-x--0--x-x--0---|
B|-------------2--x-x--2--x-x--2--x-x--2---|
G|-------------2--x-x--2--x-x--2--x-x--2---|
D|-------------2--x-x--2--x-x--2--x-x------|
A|-0h2-0h2--0--0--x-x--0--x-x--0--x-x------|
E|----------------x-x-----x-x-----x-x------|
               ↓  ↑ ↓  ↑  ↓ ↑  ↓  ↑ ↓  ↑

1ª parte:
            Bm
E|----------2--x-x--2--x-x--2--x-x--2------|
B|----------3--x-x--3--x-x--3--x-x--3------|
G|----------4--x-x--4--x-x--4--x-x--4------|
D|-----2----4--x-x--4--x-x--4--x-x---------|
A|-2h4---2--2--x-x--2--x-x--2--x-x---------|
E|-------------x-x-----x-x-----x-x---------|
            ↓  ↑ ↓  ↑  ↓ ↑  ↓  ↑ ↓  ↑

3ª parte:
               A
E|-------------0--x-x--0--x-x--0-----------|
B|-------------2--x-x--2--x-x--2-----------|
G|-------------2--x-x--2--x-x--2-----------|
D|-------------2--x-x--2--x-x--2-----------|
A|-0h2-0h2--0--0--x-x--0--x-x--0-----------|
E|----------------x-x-----x-x--------------|
               ↓  ↑ ↓  ↑  ↓ ↑  ↓
Acordes para:
    Compositor: Luiz Henrique / FernandoColaboración y revision:

    0 comentarios

      mostrar más comentarios

      ¿Conseguiste tocar?

      36tocaron0aún no

      ¡Graba un vídeo tocando Amiga da Minha Irmã y envianoslo!

      00:00 / 00:00
      outros vídeos desta música
      repetirqualidadeautomática
      Outro vídeos desta música
        00:00 / 00:00
        automática
        Capítulos
        • Início
        • Tocando a música
        • Acordes da Introdução
        • Tocando Introdução
        • Ensinando Introdução
        • Acordes da Primeira Parte
        • Tocando Primeira Parte
        • Ensinando Primeira Parte
        • Acordes do Pré-Refrão
        • Tocando Pré-Refrão
        • Ensinando Pré-Refrão
        • Tocando Refrão
        • Ensinando Refrão
        • Tocando Repetição da Introdução
        • Ensinando Repetição da Introdução
        • Tocando Refrão Final
        • Ensinando Variação do Refrão Final
        • Encerramento
        OK