Cifra Club

Aprenda

Muleke Ou Homem

Michel Teló

Tablatura: Principal (guitarra)
tono: B (con acordes en la forma de G) Capotraste na 4ª casa
[Intro] G  D9  Am7  C9

E|------------------------------------------|
B|------------------------------------------|
G|-4-2-4-4/7-4-2-4--2/4-2-4-4/7-------------|
D|------------------------------------------|
A|------------------------------------------|
E|------------------------------------------|

E|------------------------------------------|
B|-3--------------------------0-------------|
G|---5-2/4-4--------------0h2---------------|
D|-----------2-2/5-5--2-5-------------------|
A|------------------------------------------|
E|------------------------------------------|

E|------------------------------------------|
B|-3--------------------------0-------------|
G|---5-2/4-4--------------0h2---------------|
D|-----------2-2/5-5--2-5-------------------|
A|------------------------------------------|
E|------------------------------------------|

[Primeira Parte]

   G       
Muleke não ta nem aí com nada
      D9
Já o homem chega na hora marcada
   Am7    
Muleke dá valor aos contatinhos
      C9                         
Já o homem só pra uma dá carinho

[Pré-Refrão]

   Am7
Mulekes são covardes brincam de amar
 C9                              
Homens de verdade sentem o que é amor
   G
Mulekes não tão nem aí se vão te machucar
    D9                                                   C9
Já homens de verdade se preocupam com o espinho de uma flor

[Refrão]

              G
Então você escolhe

Qual caminho vai seguir
                     D9
O de cada noite um quarto

Ou de um amor pra dividir
              Am7
Você é que escolhe 

Muleke ou homem
              C9
Você é que escolhe 

Muleke ou homem

              G
Então você escolhe

Qual caminho vai seguir
                     D9
O de cada noite um quarto

Ou de um amor pra dividir
              Am7
Você é que escolhe 

Muleke ou homem
              C9
Você é que escolhe 
     D9
Ser só mais uma 
                 Am7  C9
Ou ter meu sobrenome

[Solo]

E|------------------------------------------|
B|------------------------------------------|
G|-4-2-4-4/7-4-2-4--2/4-2-4-4/7-------------|
D|------------------------------------------|
A|------------------------------------------|
E|------------------------------------------|

E|------------------------------------------|
B|------------------------------------------|
G|-2h4p2p0-----0----------------------------|
D|---------0h2------------------------------|
A|------------------------------------------|
E|------------------------------------------|

[Primeira Parte]

   G       
Muleke não ta nem aí com nada
      D9
Já o homem chega na hora marcada
   Am7    
Muleke dá valor aos contatinhos
      C9                         
Já o homem só pra uma dá carinho

[Pré-Refrão]

   Am7
Mulekes são covardes brincam de amar
 C9                              
Homens de verdade sentem o que é amor
   G
Mulekes não tão nem aí se vão te machucar
    D9                                                   C9
Já homens de verdade se preocupam com o espinho de uma flor

[Refrão]

              G
Então você escolhe

Qual caminho vai seguir
                     D9
O de cada noite um quarto

Ou de um amor pra dividir
              Am7
Você é que escolhe 

Muleke ou homem
              C9
Você é que escolhe 

Muleke ou homem

              G
Então você escolhe

Qual caminho vai seguir
                     D9
O de cada noite um quarto

Ou de um amor pra dividir
              Am7
Você é que escolhe 

Muleke ou homem
              C9
Você é que escolhe 
     D9
Ser só mais uma 
                 Am7  C9
Ou ter meu sobrenome
     D9
Ser só mais uma
                 G
Ou ter meu sobrenome
Colaboración y revision:
  • Thiago Almeida
  • Alifer Sanchez
3 reproducciones
    • ½ Tono
    • A
    • Bb
    • B
    • C
    • Db
    • D
    • Eb
    • E
    • F
    • F#
    • G
    • Ab
  • Adicionar à lista

    0 comentarios

    Ver todos os comentários
    00:00 / 00:00
    outros vídeos desta música
    repetir qualidade Automático
    Outros vídeos desta música
    00:00 / 00:00
    Automático
    OK