Cifra Club

All You Wanted Acoustic

Michelle Branch

Cifrado: Principal (guitarra y guitarra eléctrica)
Selo Cifra Club: esta cifra foi revisada para atender aos critérios oficiais da nossa Equipe de Qualidade.
tono: D (forma dos acordes no tom de G) Capotraste na 7ª casa
#This file is the author's own work and represents their interpretation of the#
#song. You may only use this file for private study, scholarship, or research.#


Album: from live performances
Transcribed by: Spife Knockturn
Email: S*

Michelle plays this song with a capo on the seventh fret.
This is my first tab, so I hope you like it. Email me for anything you want to say.
All notes are relative to the capo.

-----3-----3-----3-----3------------------------------------------------------|
-----3-----3-----3-----3------------------------------------------------------|
---0-----2--------------------------------------------------------------------|
-2-----0----------------------------------------------------------------------|
-------------0-3-----2--------------------------------------------------------|
-------------------3----------------------------------------------------------|
 This is the intro & verse parts. 2x for intro, 4x for verses.

-3--3--3--3-3-----------------------------------------------------------------|
-3--3--3--3-3-----------------------------------------------------------------|
-0--0--0--0-0-----------------------------------------------------------------|
-0--0--0--0-0-----------------------------------------------------------------|
-0--0--0--0-0-----------------------------------------------------------------|
-2--2--2--2-2-----------------------------------------------------------------|
 This is what she plays in the "swept away..." and "take you away..." part.

-0--0--3--2-------------------------------------------------------------------|
-0--1--3--3-------------------------------------------------------------------|
-0--0--0--2-------------------------------------------------------------------|
-2--2--0--0-------------------------------------------------------------------|
-2--3--2--x-------------------------------------------------------------------|
-0--x--3--x-------------------------------------------------------------------|
 This is the chorus part. It's easy to figure out the strumming pattern.

-3--5-------------------------------------------------------------------------|
-1--3-------------------------------------------------------------------------|
-0--0-------------------------------------------------------------------------|
-2--4-------------------------------------------------------------------------|
-3--5-------------------------------------------------------------------------|
-x--x-------------------------------------------------------------------------|
 This is the bridge part. Repeat about three times before doing this one.

-0-0-3-3----------------------------------------------------------------------|
-1-1-3-3----------------------------------------------------------------------|
-0-2-0-0----------------------------------------------------------------------|
-2-2-0-0----------------------------------------------------------------------|
-3-0-2-0----------------------------------------------------------------------|
-x-x-3-2----------------------------------------------------------------------|
 This is the last part of the bridge that I'm talking about.

-3----------------------------------------------------------------------------|
-3----------------------------------------------------------------------------|
-0----------------------------------------------------------------------------|
-2----------------------------------------------------------------------------|
-3----------------------------------------------------------------------------|
-x----------------------------------------------------------------------------|
 Repeat the intro part (for the last time) and end on the above *!
Otros videos de esta canción
    63 exhibiciones
      • ½ Tono
      • A
      • Bb
      • B
      • C
      • Db
      • D
      • Eb
      • E
      • F
      • F#
      • G
      • Ab
    • Agregar a la lista

    Afinação da cifra

    Afinador online

      Ops (: Contenido disponible solo en portugués.
      OK