Cifra Club

Creep

Michelle Branch

Cifrado: Principal (guitarra y guitarra eléctrica)
Selo Cifra Club: esta cifra foi revisada para atender aos critérios oficiais da nossa Equipe de Qualidade.
tono: Bm
[Intro] 
E|---------------------0----------------------|-------------------------------------------|
B|-----------3-------------------3---------3--|-----------2---------3---------2---------2-|
G|-----2---------2---------2---------2--------|-----3---------3---------3---------3-------|
D|--0-----0---------0---------0---------0-----|--4-----4---------4---------4---------4----|
A|--------------------------------------------|-------------------------------------------|
E|--------------------------------------------|-------------------------------------------|

E|--------------------------------------------|-------------------------------------------|
B|-----------3---------5---------3---------3--|-----------3---------3---------------------|
G|-----4---------4---------4---------4--------|-----3---------3---------------------------|
D|--5-----5---------5---------5---------5-----|--5-----5---------5------------------------|
A|--------------------------------------------|-------------------------------------------|
E|--------------------------------------------|-------------------------------------------|
Otros videos de esta canción
    10 exhibiciones
      • ½ Tono
      • Am
      • Bbm
      • Bm
      • Cm
      • C#m
      • Dm
      • Ebm
      • Em
      • Fm
      • F#m
      • Gm
      • G#m
    • Agregar a la lista

    Afinação da cifra

    Afinador online

      Ops (: Contenido disponible solo en portugués.
      OK