Cifra Club

Sweet Misery Acoustic

Michelle Branch

Cifrado: Principal (guitarra y guitarra eléctrica)
Selo Cifra Club: esta cifra foi revisada para atender aos critérios oficiais da nossa Equipe de Qualidade.
tono: C
Sweet Misery (Acoustic Version)
From the album: Broken Bracelet
Tabbed out by Candice ::.Secret surname.::

This is my first tab. But it seems pretty accurate to my ears. I'm not sure of the real 

strumming but you can play this song with this because the strumming still kinda fits.

Standard Tuning

Intro
       C            G         Am    G
E|-----0--0-0--3-3-3--3|----0--0-0--3-3-3--3|
B|-----1--1-1--3-3-3--3|----1--1-1--3-3-3--3|
G|-----0--0-0--0-0-0--0|----2--2-2--0-0-0--0|  2x
D|-----2--2-2--0-0-0--0|----2--2-2--0-0-0--0|
A|--3--3--3-3--2-2-2--2|-0--0--0-0--2-2-2--2|
E|-----x--x-x--3-3-3--3|----x--x-x--3-3-3--3|

Verse

        
E|------0--0-0--0-0-0-------3--3-3--3-3-3-3------0--0-0--0-0-0------3--3-3--3-3-3-3-|
B|------1--1-1--1-1-1-------3--3-3--3-3-3-3------1--1-1--1-1-1------3--3-3--3-3-3-3-|
G|------0--0-0--0-0-0-------0--0-0--0-0-0-0------2--2-2--2-2-2------0--0-0--0-0-0-0-|
D|----2-2--2-2--2-2-2-------0--0-0--0-0-0-0----2-2--2-2--2-2-2------0--0-0--0-0-0-0-| 2x
A|--3---3--3-3--3-3-3-----2-2--2-2--2-2-2-2--0---0--0-0--0-0-0----2-2--2-2--2-2-2-2-|
E|------x--x-x--x-x-x---3---3--3-3--3-3-3-3------x--x-x--x-x-x--3---3--3-3--3-3-3-3-|


CHORUS:

E|------0--0-0-----3-----3-3-3--3-3-3--|
B|------1--1-1-----1-----3-3-3--3-3-3--|
G|------2--2-2-----2-----0-0-0--0-0-0--|
D|---3--3--3-3--3--3-----0-0-0--0-0-0--|
A|------x--x-x-----x---2-2-2-2--2-2-2--|
E|------x--x-x-----x--3--3-3-3--3-3-3--|

Bridge:
E|----0--0-0--3-3-3--3----3-3-3--3-3--3-|----0--0-0--3-3-3--3----0--0-0--3-3-3--3--|
B|----1--1-1--3-3-3--3----1-1-1--1-1--1-|----1--1-1--3-3-3--3----1--1-1--3-3-3--3--|
G|----0--0-0--0-0-0--0----2-2-2--2-2--2-|----0--0-0--0-0-0--0----2--2-2--0-0-0--0--|
D|----2--2-2--0-0-0--0--3-3-3-3--3-3--3-|----2--2-2--0-0-0--0----2--2-2--0-0-0--0--|
A|--3-3--3-3--2-2-2--2----x-x-x--x-x--x-|--3-3--3-3--2-2-2--2--0-0--0-0--2-2-2--2--|
E|----x--x-x--3-3-3--3----x-x-x--x-x--x-|----x--x-x--3-3-3--3----x--x-x--3-3-3--3--|


Order:

INTRO

VERSE
I was lost and you were found
You seem to stand solid ground

I was weak and you were strong
And me and my guitar we strummed along


CHORUS
Sweeeet misery you cause me
That's what you called me
Sweeeet misery you cause me

INTRO

VERSE
I was blind but, oh, how you could see
You saw the beauty in everything, everything in me

CHORUS
Sweeeet misery you cause me
that's what you called me
Sweeeet misery you cause me

BRIDGE
ANd in my heart I see
Oh-oh What you're doing to me
And in my heart I see
Oh-oh just how you wanted it to be

INTRO

CHORUS
Sweeet Misery you cause me
That's what you called me
Sweeet MIsery you cause me

BRIDGE
ANd in my heart I see
Oh-oh What you're doing to me
And in my heart I see
Oh-oh just how you wanted it to be

INTRO

Verse
I was weak and you were strong
And me and my guitar we strummed along...


::.END.::

Comments? send it to *
Otros videos de esta canción
    49 exhibiciones
      • ½ Tono
      • A
      • Bb
      • B
      • C
      • Db
      • D
      • Eb
      • E
      • F
      • F#
      • G
      • Ab
    • Agregar a la lista

    Afinação da cifra

    Afinador online

      Ops (: Contenido disponible solo en portugués.
      OK