Cifra Club

Old Habits Die Hard

Mick Jagger

Cifrado: Principal (guitarra y guitarra eléctrica)
Selo Cifra Club: esta cifra foi revisada para atender aos critérios oficiais da nossa Equipe de Qualidade.
tono: F (forma dos acordes no tom de A) Capotraste na 8ª casa
[Tab - Intro]

E|-----------------------------------------------8--10------------------------|
B|-------10--8--10------------------------------------------------------------|
G|----------------------------------------------------------------------------|
D|----------------------------------------------------------------------------|
A|----------------------------------------------------------------------------|
E|----------------------------------------------------------------------------|

E|-----------------------------------6----------------------------------------|
B|-------11--10--8--------------------6--8--6---------------------------------|
G|----------------------------------------------------------------------------|
D|----------------------------------------------------------------------------|
A|----------------------------------------------------------------------------|
E|----------------------------------------------------------------------------|

E|----------------------------------------------8--10------------------------|
B|------10--8--10------------------------------------------------------------|
G|---------------------------------------------------------------------------|
D|---------------------------------------------------------------------------|
A|---------------------------------------------------------------------------|
E|---------------------------------------------------------------------------|

E|-----------------------------------6---------------------------------------|
B|-------11--10--8--10------------------6--8--6------------------------------|
G|---------------------------------------------------------------------------|
D|---------------------------------------------------------------------------|
A|---------------------------------------------------------------------------|
E|---------------------------------------------------------------------------|

      Bb
  I thought I shook myself free
            F
  You see I bounce back quicker than most
          Gm                 F
  But I'm half delirious, is too mysterious
      Eb
  You walk through my walls like a ghost

      Bb
  And I take everyday at a time
       D7
  I'm proud as a lion in his lair
       Eb                    Gm
  Now there's no denying it, a note to crying it
       Eb
  Your all tangled up in my head

     Bb                F
       Old habits die hard
   Cm                    Eb
       Old soldiers just fade away
     Bb                F
       Old habits die hard
       Cm             Eb
       Harder than November rain

       Old habits die hard
       Old soldiers just fade away
       Old habits die hard
       Hard enough to feel the pain

  We haven't spoken in months
  You see, I've been counting the days
  I dream of such humanities, such insanities
  I'm lost like a kid and I'm late

  But I've never taken your coats
  You see, haven't put no block on my phone
  I act like an addict, I just got to have it
  I never can leave it alone

Repete Intro
Otros videos de esta canción
    5.963 exhibiciones
      • ½ Tono
      • A
      • Bb
      • B
      • C
      • Db
      • D
      • Eb
      • E
      • F
      • F#
      • G
      • Ab
    • Agregar a la lista

    Afinação da cifra

    Afinador online

      Ops (: Contenido disponible solo en portugués.
      OK