Cifra Club

Dreamworld

Midnight Oil

Cifrado: Principal (guitarra y guitarra eléctrica)
Selo Cifra Club: esta cifra foi revisada para atender aos critérios oficiais da nossa Equipe de Qualidade.
tono: C#m
[Intro]
    E     B         G        D
E|------------------------------------|
B|------------------------------------|
G|------------------------------------|
D|------------------------------------|
A|--7-7-7-2--------/10-10-10-5---5-5--| x4
E|------------------------------------|

[Verse 1]
    G         D     G  D   E         B     G D
The Breakfast Creek ho-tel is up for sale
    G           D       G     D     E               B     G D
The last square mile of terra firma gavelled in the mail
   G        D      G   D    E      B     G D
so farewell to the Nor-folk Island pines
    G        D     G          D         E        B      G D
No amount of make believe can help this heart of mine

[Chorus]
E D F#m A   E         D        F#m          A
(End)       Your dreamworld is just about to end
E D F#m B   E         D        F#m   B       E     D F#m A
(Fall)      Your dreamworld is just about to fall
E         D     F#m  B
Your dreamworld will fall

[Interlude]
    E     B         G        D
E|-------------------------------------|
B|-------------------------------------|
G|-------------------------------------|
D|-------------------------------------|
A|--7-7-7-2--------/10-10-10-5---5-5---| x2
E|-------------------------------------|

[Verse 2]
   G         D      G   D    E         B     G D
So shut that buckle and turn that key again
G       D    G          D       E              B     G D
Take me to a place they say the dreaming never ends
G    D    G     D    E       B     G D
Open wide drive that mystery road
G            D      G  D   E        B      G D
Walk through Eden's garden and then wonder as you go

[Chorus]
E D F#m A   E         D        F#m          A
(End)       Your dreamworld is just about to end
E D F#m B   E         D        F#m   B       E     D F#m A
(Fall)      Your dreamworld is just about to fall
E D F#m B   E         D         Am
(Fall)      Your dreamworld is just about to fall

[Bridge]
    G#m                        B/F#
E|--------------------0-----|--------------------0-----|
B|---------------4----------|---------------4----------|
G|--------4-----------------|--------4-----------------|
D|--6--------6--------------|--4--------4------4-------|
A|--------------------------|--------------------------|
E|-----------------4--------|--------------------------|

    F#7sus4
E|--------------------0-----|
B|--------0------0----------|
G|------------------6-------|
D|--4--------4--------------|
A|--------------------------|
E|--------------------------|

G#m
  Sign says honeymoon to rent
G#m               F#m
   Cloudland into dreamland turns
G#m                    F#m
  The sun comes up and we all learn
      B           F#m
Those wheels must turn

    E     B         G        D
E|-------------------------------------|
B|-------------------------------------|
G|-------------------------------------|
D|-------------------------------------|
A|--7-7-7-2--------/10-10-10-5---5-5---| x2
E|-------------------------------------|

    C              Bb             A                       E     F         D     Bb
E|--------------------------|--------------------------|-----------------------------|
B|--------------------------|--------------------------|-----------------------------|
G|--3--5--5--5--5--3-----3--|--3--2-----2--2--3-----3--|--9-9-9-10-10-10--7--7--3--3-|
D|--------------------------|--------------------------|-----------------------------|
A|--------------------------|--------------------------|-----------------------------|
E|--------------------------|--------------------------|-----------------------------|

[Chorus]
E D F#m A   E         D        F#m          A
(End)       Your dreamworld is just about to end
E D F#m B   E         D        F#m   B       E     D F#m A
(Fall)      Your dreamworld is just about to fall
E         D     Am
Your dreamworld will fall

[Chorus]
E D F#m A   E         D        F#m          A
(End)       your dreamworld is just about to end
E D F#m B   E         D        F#m   B       E     D F#m A
(Fall)      your dreamworld is just about to fall
E         D     Am
Your dreamworld will fall

[Outro]
G  D  G  D  E  B  G D
(Repeat until end)
Otros videos de esta canción
    137 exhibiciones
      • ½ Tono
      • Am
      • Bbm
      • Bm
      • Cm
      • C#m
      • Dm
      • Ebm
      • Em
      • Fm
      • F#m
      • Gm
      • G#m
    • Agregar a la lista

    Afinación de cifrado

    Afinador online

      OK