Cifra Club

Reef

Midnight Oil

Cifrado: Principal (guitarra y guitarra eléctrica)
Selo Cifra Club: esta cifra foi revisada para atender aos critérios oficiais da nossa Equipe de Qualidade.
tono: G
[INTRO - Acoustic Guitar]
  Am          G                    D           Em
E|0---0---0---3-------------------| 2---2---2---0-------------------|
B|1---1---1---0-------------------| 3---3---3---0-------------------|
G|2---2---2---0-------------------| 2---2---2---0-------------------|
D|2---2---2---0-------------------| 0---0---0---2-------------------|
A|0---0---0---2-------------------|------------2-------------------|
E|------------0-------------------|------------0-------------------|
  1       2       3       4        1       2       3       4

  Am          G           D            Em
E|0---0---0---3-----------2---2---| 2---0---------------------------|
B|1---1---1---0-----------3---3---| 3---0---------------------------|
G|2---2---2---0-----------2---2---| 2---0---------------------------|
D|2---2---2---0-----------0---0---| 0---2---------------------------|
A|0---0---0---2-------------------|----2---------------------------|
E|------------0-------------------|----0---------------------------|
  1       2       3       4        1       2       3       4

  Am          G                    D           Em
E|0---0---0---3-------------------| 2---2---2---0-------------------|
B|1---1---1---0-------------------| 3---3---3---0-------------------|
G|2---2---2---0-------------------| 2---2---2---0-------------------|
D|2---2---2---0-------------------| 0---0---0---2-------------------|
A|0---0---0---2-------------------|------------2-------------------|
E|------------0-------------------|------------0-------------------|
  1       2       3       4        1       2       3       4

  Am          G           D            Em
E|0---0---0---3-----------2---2---| 2---0---------------------------|
B|1---1---1---0-----------3---3---| 3---0---------------------------|
G|2---2---2---0-----------2---2---| 2---0---------------------------|
D|2---2---2---0-----------0---0---| 0---2---------------------------|
A|0---0---0---2-------------------|----2---------------------------|
E|------------0-------------------|----0---------------------------|
  1       2       3       4        1       2       3       4


[INTRO - 12-String Guitar]
                                   D   Em
E|----------------------------3---|
B|--------------------------------|
G|--------------------------------|
D|--------------------------------|
A|--------------------------------|
E|--------------------------------|
                                   1       2       3       4

  Em          C              G                                 Em
E|---2--------0-------------------|----------------------------3---|
B|--------------------3------0----|--------------------------------|
G|--------------------------------|--------------------------------|
D|--------------------------------|--------------------------------|
A|--------------------------------|--------------------------------|
E|--------------------------------|--------------------------------|
  1       2       3       4        1       2       3       4
 
  Em          C              G                 D
E|---2--------0-------------------|----------------------------0---|
B|--------------------3------0----|----3---------------------------|
G|--------------------------------|------------2-------0-----------|
D|--------------------------------|--------------------------------|
A|--------------------------------|--------------------------------|
E|--------------------------------|--------------------------------|
  1       2       3       4        1       2       3       4

  Em          C              G                                 Em
E|---2--------0-------------------|----------------------------3---|
B|--------------------3------0----|--------------------------------|
G|--------------------------------|--------------------------------|
D|--------------------------------|--------------------------------|
A|--------------------------------|--------------------------------|
E|--------------------------------|--------------------------------|
  1       2       3       4        1       2       3       4

 
[INTRO - Full Band]
  Em          C              G                                 Em
E|---2--------0-------------------|----------------------------3---|
B|--------------------3------0----|--------------------------------|
G|--------------------------------|--------------------------------|
D|--------------------------------|--------------------------------|
A|--------------------------------|--------------------------------|
E|--------------------------------|--------------------------------|
  1       2       3       4        1       2       3       4
 
  Em          C              G                 D
E|---2--------0-------------------|----------------------------0---|
B|--------------------3------0----|----3---------------------------|
G|--------------------------------|------------2-------0-----------|
D|--------------------------------|--------------------------------|
A|--------------------------------|--------------------------------|
E|--------------------------------|--------------------------------|
  1       2       3       4        1       2       3       4

  Em          C              G                                 Am
E|---2--------0-------------------|--------------------------------|
B|--------------------3------0----|--------------------------------|
G|--------------------------------|----------------------------2---|
D|--------------------------------|--------------------------------|
A|--------------------------------|--------------------------------|
E|--------------------------------|--------------------------------|
  1       2       3       4        1       2       3       4

  Am          C              G                                 Am
E|--------------------------------|--------------------------------|
B|------------0-------------------|--------------------------------|
G|---0----------------0------0----|----------------------------2---|
D|--------------------------------|--------------------------------|
A|--------------------------------|--------------------------------|
E|--------------------------------|--------------------------------|
  1       2       3       4        1       2       3       4

  Am          C              G                                 Am
E|--------------------------------|--------------------------------|
B|------------0-------------------|--------------------------------|
G|---0----------------0------0----|----------------------------2---|
D|--------------------------------|--------------------------------|
A|--------------------------------|--------------------------------|
E|--------------------------------|--------------------------------|
  1       2       3       4        1       2       3       4

  Am          C              G                                 Em
E|--------------------------------|----------------------------3---|
B|------------0-------------------|--------------------------------|
G|---0----------------0------0----|--------------------------------|
D|--------------------------------|--------------------------------|
A|--------------------------------|--------------------------------|
E|--------------------------------|--------------------------------|
  1       2       3       4        1       2       3       4


Em  C   G
        We've got the green light
Em  C   G           D
        We're gonna dynamite
Em  C   G                Em  C   G
        A world heritage site


Em  C   G
        Scientific recourse
Em  C   G              D
        Try to keep it so short
Em  C   G
        Hey, never read the details
Am  C   G
        Said it needs protection
Am  C   G
        But we've got elections
Am  C   G              Em  C   G
        Coal-fired erections


Em  C   G
        We're gonna make it pay
Em  C   G           D
        We'll do it our way
Em  C   G               Em  C   G
     So how about a railway?


    Bm
The sky is a mirror
    Em
The sea and the breeze
    A
The sky is a mirror
        Am
Of self-interest and greed


[BDA K]
                                   Am                          Em
E|----------------------------3---|
B|--------------------------------|
G|--------------------------------|
D|--------------------------------|
A|--------------------------------|
E|--------------------------------|
                                   1       2       3       4

  Em          C              G                                 Em
E|---2--------0-------------------|----------------------------3---|
B|--------------------3------0----|--------------------------------|
G|--------------------------------|--------------------------------|
D|--------------------------------|--------------------------------|
A|--------------------------------|--------------------------------|
E|--------------------------------|--------------------------------|
  1       2       3       4        1       2       3       4
 
  Em          C              G                 D
E|---2--------0-------------------|----------------------------0---|
B|--------------------3------0----|----3---------------------------|
G|--------------------------------|------------2-------0-----------|
D|--------------------------------|--------------------------------|
A|--------------------------------|--------------------------------|
E|--------------------------------|--------------------------------|
  1       2       3       4        1       2       3       4

  Em          C              G                                 Em
E|---2--------0-------------------|----------------------------3---|
B|--------------------3------0----|--------------------------------|
G|--------------------------------|--------------------------------|
D|--------------------------------|--------------------------------|
A|--------------------------------|--------------------------------|
E|--------------------------------|--------------------------------|
  1       2       3       4        1       2       3       4


Em  C   G
     It really fits with our brand
Em  C   G                D
        Lumps of coal in our hand
Em  C   G                   Em  C   G
        Welcome to tomorrow land


Em  C   G
        Environmental injury
Em  C   G             D
        Trashing our ecology
Em  C   G
        So simply valedictory
Am  C   G
        Coral reefs are history
Am  C   G                   Am  C   G
        Bring on the artillery


   Bm
It doesn't belong to the government
   Em
It doesn't belong to the mine
     A
It belongs to the people
Am
People like you and I


[G  O - Acoustic and Electric Guitar]
  Am          G                    D           Em
E|0---0---0---3-------------------| 2---2---2---0-------------------|
B|1---1---1---0-------------------| 3---3---3---0-------------------|
G|2---2---2---0-------------------| 2---2---2---0-------------------|
D|2---2---2---0-------------------| 0---0---0---2-------------------|
A|0---0---0---2-------------------|------------2-------------------|
E|------------0-------------------|------------0-------------------|
  1       2       3       4        1       2       3       4

  Am          G           D            Em
E|0---0---0---3-----------2---2---| 2---0---------------------------|
B|1---1---1---0-----------3---3---| 3---0---------------------------|
G|2---2---2---0-----------2---2---| 2---0---------------------------|
D|2---2---2---0-----------0---0---| 0---2---------------------------|
A|0---0---0---2-------------------|----2---------------------------|
E|------------0-------------------|----0---------------------------|
  1       2       3       4        1       2       3       4

  Am          G                    D           Em
E|0---0---0---3-------------------| 2---2---2---0-------------------|
B|1---1---1---0-------------------| 3---3---3---0-------------------|
G|2---2---2---0-------------------| 2---2---2---0-------------------|
D|2---2---2---0-------------------| 0---0---0---2-------------------|
A|0---0---0---2-------------------|------------2-------------------|
E|------------0-------------------|------------0-------------------|
  1       2       3       4        1       2       3       4

  Am          G           D            Em
E|0---0---0---3-----------2---2---| 2---0---------------------------|
B|1---1---1---0-----------3---3---| 3---0---------------------------|
G|2---2---2---0-----------2---2---| 2---0---------------------------|
D|2---2---2---0-----------0---0---| 0---2---------------------------|
A|0---0---0---2-------------------|----2---------------------------|
E|------------0-------------------|----0---------------------------|
  1       2       3       4        1       2       3       4


[G  O - Electric Guitar]
                                 D   Em
E|--------------------------------|
B|--------------------------------|
G|------------------------9-------|
D|--------------------------------|
A|--------------------------------|
E|--------------------------------|
                                 1       2       3       4

  Am          G                    D           Em
E|--------------------------------|--------------------------------|
B|--------------------------------|--------------------------------|
G|9-----------7/9\4-------9-------| 9-----------9\4---------9-------|
D|--------------------------------|--------------------------------|
A|--------------------------------|--------------------------------|
E|--------------------------------|--------------------------------|
  1       2       3       4        1       2       3       4

  Am          G           D            Em
E|--------------------------------|--------------------------------|
B|--------------------------------|--------------------------------|
G|9-----------7/9\4-------9-------| 9-----------7/9-9-------9-------|
D|--------------------------------|--------------------------------|
A|--------------------------------|--------------------------------|
E|--------------------------------|--------------------------------|
  1       2       3       4        1       2       3       4

  Am          G                    D           Em
E|--------------------------------|--------------------------------|
B|--------------------------------|--------------------------------|
G|9-----------7/9\4-------9-------| 9-----------9\4---------9-------|
D|--------------------------------|--------------------------------|
A|--------------------------------|--------------------------------|
E|--------------------------------|--------------------------------|
  1       2       3       4        1       2       3       4

  Am          G           D            Em
E|--------------------------------|--------------------------------|
B|------------10------------------|--------------------------------|
G|9---------------9-------4-------| 9-----------9-------9---9-------|
D|--------------------------------|--------------------------------|
A|--------------------------------|--------------------------------|
E|--------------------------------|--------------------------------|
  1       2       3       4        1       2       3       4

  Am          G                    D           Em
E|--------------------------------|--------------------------------|
B|--------------------------------|--------------------------------|
G|9~------9~------9~--10pb9~------| 9~------9~------9~--10pb9~------|
D|--------------------------------|--------------------------------|
A|--------------------------------|--------------------------------|
E|--------------------------------|--------------------------------|
  1       2       3       4        1       2       3       4

  Am          G           D            Em
E|--------------------------------|--------------------------------|
B|--------------------------------|--------------------------------|
G|9~------9~------9~--9b11~-11pb9~| 9~------9b10b9~-9~----9\4-------|
D|--------------------------------|--------------------------------|
A|--------------------------------|--------------------------------|
E|--------------------------------|--------------------------------|
  1       2       3       4        1       2       3       4

  Am          G                    D           Em
E|--------------------------------|--------------------------------|
B|--------------------------------|--------------------------------|
G|----9-----------9-------9\4-----| 9-----------9-----------9-------|
D|--------------------------------|--------------------------------|
A|--------------------------------|--------------------------------|
E|--------------------------------|--------------------------------|
  1       2       3       4        1       2       3       4

  Am          G           D            Em
E|--------------------------------|--------------------------------|
B|--------------------------------|--------------------------------|
G|9-----------9-----------9-------| 9-----------9-----------9-------|
D|--------------------------------|--------------------------------|
A|--------------------------------|--------------------------------|
E|--------------------------------|--------------------------------|
  1       2       3       4        1       2       3       4

  Cmaj7
E|--------------------------------|--------------------------------|
B|--------------------------------|--------------------------------|
G|--------------------------------|--------------------------------|
D|7---------------5---------------|--------------------------------|
A|--------------------------------|----7-------5---7---------------|
E|--------------------------------|--------------------------------|
  1       2       3       4        1       2       3       4

  Em
E|0-------------------------------|--------------------------------|
B|0-------------------------------|--------------------------------|
G|0-------------------------------|--------------------------------|
D|2-------------------------------|--------------------------------|
A|2-------------------------------|--------------------------------|
E|0-------------------------------|--------------------------------|
  1       2       3       4        1       2       3       4


Em    C                       D                  Em  C   G
  The sky is a mirror of self-interest and greed


Em  C   G                  D
        Take them down and throw them out
Em  C   G
        Vote them in and vote them out
Am  C   G
     Consign them to purgatory
Am  C   G
        Cash on delivery
Am  C   G                    Am  C   G
    All coral reefs are history


***********************************

| /   Slide-up
| \   Slide-down
| b   Bend
| pb  Pre-bend
| ~   Vibrato
Otros videos de esta canción
    10 exhibiciones
      • ½ Tono
      • A
      • Bb
      • B
      • C
      • Db
      • D
      • Eb
      • E
      • F
      • F#
      • G
      • Ab
    • Agregar a la lista

    Afinação da cifra

    Afinador online

      Ops (: Contenido disponible solo en portugués.
      OK