Cifra Club

The Dead Heart

Midnight Oil

Cifrado: Principal (guitarra y guitarra eléctrica)
tono: A
Intro:
Riff 1

E|------------------|--------------|          |--0--|
B|---------2--3--2--|--------------|          |--0--|
G|-----4------------|--4----2-2----| 3x  with |--4--| in the
D|--4---------------|--------------|          |--4--|  end
A|------------------|--------------|          |--2--|
E|------------------|--------------|          |-----|

Repeat "riff 1" 2X (in the second time guitar two ends with Bm)
follow by guitar 1 playing 1X:

Bm  E  A     Bm  E  A     Bm E  A Bm  Bm
Do Do Do Do Do Do Do

And guitar 2 playing:

Bm  E  A     Bm  E  A     Bm  E  A F#m  Bm
Do Do Do Do Do Do Do

B5

We don't serve your country
Don't serve your king
Know your custom don't speak your tongue
White man came took everyone

Riff 2


E|--0--|------------------|--------------|
B|--0--|---------2--3--2--|--------------|
G|--4--|-----4------------|--4----2-2----| 2x
D|--4--|--4---------------|--------------|
A|--2--|------------------|--------------|
E|-----|------------------|--------------|

B5

We don't serve your country
Don't serve your king
White man listen to the songs we sing
White man came took everything

B5

We dont serve your country
Dont serve your king
White man listen to the songs we sing
White man came took everything

Riff 2


   Bm            A          G
We carry in our hearts the true country
    F#m            D  A/C#
And that cannot be stolen
   Bm            A            G
We follow in the steps of our ancestry
    F#m    A       D  A/C#
And that cannot be broken

Riff 2
Repeat the first verse
Riff 2
Riff 2

B5
We don't need protection
Don't need your land
Keep your promise on where we stand
We will listen we'll understand

Riff 2
Chorus (twice) with B5 in the end
Riff 1

Till the end guitar 1 play:
Bm  E  A     Bm  E  A     Bm  E  A Bm  Bm

And guitar 2 play:
G#m       F#m   G#m       F#m   G#m       F#m   Bm

Mining companies, pastoral companies, Uranium companies, Collected companies
Got more right than people, Got more say than people
Forty thousand years can make a difference to the state of things
The dead heart lives here
Composición de Jim Moginie / Peter Garrett / Rob Hirst
Colaboración y revisión:
  • Mathews Alves
  • Eduardo
  • Marcos Mendonça
596 vistas
    • ½ Tono
    • A
    • Bb
    • B
    • C
    • Db
    • D
    • Eb
    • E
    • F
    • F#
    • G
    • Ab
  • Agregar a la lista

    0 comentarios

    Ver todos los comentarios

    ¿Lograste tocar?

    1 Tocaron 0 Aún no

    ¡Graba un video tocando The Dead Heart y envíanoslo!

    00:00 / 00:00
    Outros vídeos desta música
    Repetir Calidad Automático
    Outros vídeos desta música
    00:00 / 00:00
    Automático
    OK