Cifra Club

Eres mi sanador

Miel San Marcos

Cifrado: Principal (guitarra y guitarra eléctrica)
tono: C
Intro: C - Am - G - F

Estrofa 1:

C
Por tus llagas yo soy sano,
Am                           F
por tu Sangre yo soy limpio, Dios
Dm            Am   G
  Eres mi Sanador

Estrofa 2:
C
De las cenizas me levantaste
Am                          F
De tinieblas me rescataste, Dios.
Dm          Am     G
  Eres mi Sanador.


Pre-Coro:
         F           G
Por tu muerte tengo vida.
   Dm/F               G
Moraré contigo para siempre.


CORO:
             C             Am
Eres mi Sanador, mi Libertador
                  G  Dm                    Am - G
Venciste en esa Cruz,  mi victoria está en ti.


Estrofa 2:

C
De las cenizas me levantaste
Am                          F
De tinieblas me rescataste, Dios.
Dm          Am     G
  Eres mi Sanador.


Pre-coro:
         F           G
Por tu muerte tengo vida.
   Dm/F               G
Moraré contigo para siempre.


CORO:
             C              Am
Eres mi Sanador, mi Libertador.
                  G  Dm                    Am - G
Venciste en esa Cruz.  Mi victoria está en ti.
             C                 Am
Eres mi Sanador, Eres mi Redentor
               G  Dm                 Am - G
Ganaste Tú por mí,  seguro estoy en Ti.

PUENTE: C Am G Dm-G

G  O:
                        C
E|-13-13-13-13--12-12-12-12-12-12-12------------------|
B|------------------------------------13--15---15-----|
G|----------------------------------------------------|
D|----------------------------------------------------|
A|----------------------------------------------------|
E|----------------------------------------------------|

                        Am
E|-13-13-13-13--12-12-12-12-12-12-12------------------|
B|------------------------------------13--15---15-----|
G|----------------------------------------------------|
D|----------------------------------------------------|
A|----------------------------------------------------|
E|----------------------------------------------------|

                                 G
E|-13-13-13-13--12|---15-----15-----------12--12------|
B|----------------| 12----13-----15--13h15-------15-13-|
G|----------------|-----------------------------------|
D|----------------|-----------------------------------|
A|----------------|-----------------------------------|
E|----------------|-----------------------------------|

       Dm              G
E|--------------|---------------|
B|-----13-13s17-|-15--17-17s13--|
G|-14-----------|---------------|
D|--------------|---------------|
A|--------------|---------------|
E|--------------|---------------|

PUENTE:
  C
// Mi confianza está sólo en Ti
 Am
   Mi confianza está sólo en Ti
  G                           Dm
   Mi confianza está sólo en Ti
           G           C
   Sólo en Ti, mi Sanador. //

CORO:
             C              Am
Eres mi Sanador, mi Libertador.
                  G  Dm                    Am - G
Venciste en esa Cruz.  Mi victoria está en ti.
             C                 Am
Eres mi Sanador, Eres mi Redentor
               G  Dm                 Am - G
Ganaste Tú por mí,  seguro estoy en Ti.

C
// Mi confianza está sólo en Ti
 Am
   Mi confianza está sólo en Ti
  G                           Dm
   Mi confianza está sólo en Ti
           G           C
   Sólo en Ti, mi Sanador. //

*Isaías 53:3-5

Despreciado y desechado entre los hombres,
varón de dolores, experimentado en quebranto;
y como que escondimos de él el rostro, fue menospreciado, y no lo estimamos.
Compositor não encontrado.
10 vistas
    • ½ Tono
    • A
    • Bb
    • B
    • C
    • Db
    • D
    • Eb
    • E
    • F
    • F#
    • G
    • Ab
  • Agregar a la lista

    0 comentarios

    Ver todos los comentarios
    00:00 / 00:00
    Outros vídeos desta música
    Repetir Calidad Automático
    Outros vídeos desta música
    00:00 / 00:00
    Automático
    OK