Cifra Club

Glorifícate

Miel San Marcos

Cifrado: Principal (guitarra y guitarra eléctrica)
tono: F
Intro (Acordes)
F   C     Dm     Bb

Intro (Tab)
E|--------5-6-5------5-------5-6-5----5------------5-6-5---5--------------|
B|------6--------8----------6------8-------------6-------8-----------6-5-6-|
G|----5-------------------5---------------------5---------------------------|
D|--------------------------------------------------------------------------|
A|--------------------------------------------------------------------------|
E|--------------------------------------------------------------------------|


F                C                 Dm
Rey de Gloria        yo me rindo
               BbAdd2          F
Rey del cielo levanto a Ti mi voz
         C                  BbAdd2
Que mi adoración sea grata a Ti


F         C                 Dm
Mi deseo    es adorarte
               BbAdd2      F
Mi anhelo es tocar tu corazón
         C                  BbAdd2
Que mi adoración sea grata a Ti

F                         Dm
No hay nadie como Tú

No hay nadie como Tú
BbAdd2                  C
No hay nadie como Tú, Señor!

F                        Dm
No hay nadie como Tú

No hay nadie como Tú
BbAdd2                  C       Fm Bb
No hay nadie como Tú, Señor!


        C
Rey de Reyes
           Dm
Señor de Señores
    BbAdd2     F
Exaltado seas hoy
              C          BbAdd2
Mientras me acerco a tu trono
     F
Glorifícate! (2x)



Intro y se repite otra vez
De esta forma entra al coro “Glorifícate”

        C
Rey de Reyes
           Dm
Señor de Señores
    BbAdd2     F
Exaltado seas hoy
              C          BbAdd2
Mientras me acerco a tu trono


F             C/E
Glorifícate!
      Dm      BbAdd2
Glorifícate! (X4)


(Levanta tu adoración al Rey!)
Intro y Solo

Solo:

E|---5| ~--5----------------------------5-8-10~-8-6-10-8~----13~12--------
B|-----------8-6--8~-------------6-8-------------------------------15-13-|
G|----------------------------5------------------------------------------|
D|-----------------------------------------------------------------------|
A|----------------------------------------------------------------------|
E|-----------------------------------------------------------------------|

E|--------13-15-17~--17-15-13-15~------13-12-12-13-13~--------13------13-|
B|------13-------------------------------------------------15------------|
G|-----------------------------------------------------------------15----|
D|-----------------------------------------------------------------------|
A|-----------------------------------------------------------------------|
E|-----------------------------------------------------------------------|



F             C/E
Glorifícate!
      Dm      BbAdd2
Glorifícate! (X4)
00:00 / 00:00
Otros videos de esta canción
Repetir
Otros videos de esta canción
Compositor no encontrado.
2.767 vistas
    • ½ Tono
    • A
    • Bb
    • B
    • C
    • Db
    • D
    • Eb
    • E
    • F
    • F#
    • G
    • Ab
  • Agregar a la lista

    0 comentarios

    Ver todos los comentarios
    00:00 / 00:00
    OK