Cifra Club

The Impression That I Get

The Mighty Mighty BossTones

Cifrado: Principal (guitarra y guitarra eléctrica)
tono: E
Tuning:EADGBE

Intro:(clean)

e|4-4--7-7--4-4--4-4--5-5--4-4-4-4--7-7--------------------------------------|
B|5-5--7-7--5-5--4-4--5-5--5-5-5-5--7-7--------------------------------------|
G|4-4--8-8--4-4--4-4--6-6--6-6-6-6--8-8--------------------------------------|
D|---------------------------------------------------------------------------|
A|---------------------------------------------------------------------------|
E|---------------------------------------------------------------------------|

Verse: (clean)

Repeat as many times as needed. These are the correct chords but you need to work
at the rhythm yourself.

e|4-4--7-7--4-4--5-5--4-4----------------------------------------------------|
B|5-5--7-7--5-5--5-6--5-5----------------------------------------------------|
G|6-6--8-8--6-6--6-6--6-6----------------------------------------------------|
D|---------------------------------------------------------------------------|
A|---------------------------------------------------------------------------|
E|---------------------------------------------------------------------------|

Pre chorus:(distorted)

Work out the rhythm yourself, this part appears just before the chorus and is played twice.

e|---------------------------------------------------------------------------|
B|---------------------------------------------------------------------------|
G|---------2-2-2-2-----------------------------------------------------------|
D|4-4-4-4--2-2-2-2-----------------------------------------------------------|
A|4-4-4-4--0-0-0-0-----------------------------------------------------------|
E|2-2-2-2--------------------------------------------------------------------|

Chorus:(Distorted)

Once again the chords are there but you can work out a rhythm yourself

e|---------------------------------------------------------------------------|
B|---------------------------------------------------------------------------|
G|1-1-1-1-1--4-4-4-4-4--6-6-6-6-6--------------------------------------------|
D|2-2-2-2-2--4-4-4-4-4--6-6-6-6-6--7-7-7-7-7---------------------------------|
A|2-2-2-2-2--2-2-2-2-2--4-4-4-4-4--7-7-7-7-7---------------------------------|
E|---------------------------------5-5-5-5-5---------------------------------|
00:00 / 00:00
Otros videos de esta canción
Repetir
Otros videos de esta canción
Composición de Dicky Barrett / Joe Gittleman / The Mighty Mighty Bosstones
136 exhibiciones
    • ½ Tono
    • A
    • Bb
    • B
    • C
    • Db
    • D
    • Eb
    • E
    • F
    • F#
    • G
    • Ab
  • Agregar a la lista
    00:00 / 00:00
    OK