Cifra Club

Es tan fácil romper un corazón

Miguel Mateos

Cifrado: Principal (guitarra y guitarra eléctrica)
tono: A
INTRO

|| A F#m D E ||

                A
E|---------12---------|
B|-9-10-12----12-14---|
        F#m           D           E
E|-12---------12----------------------------12-------|
B|----12-14------12/14-15--14-12----9-10-12----12-14-|

(TOC  A  TABA TURA VA JUNTA)

(1)
A           F#m
Si me llamas, y te dan ganas
D                     E
podria decirte tantas cosas
A          F#m
yo que vos, no jugaria,
D                        E
con situaciones tan peligrosas

(2)
D               C#m
Las abuelas buscando bebes
          Bm
bajo las luces de leon, neon
D                 C#m
yo encadenado en mi habitacion
     Bm
esperando que llames
         E
como un tonto y su primer amor.

(CORO)
A
Es tan facil romper un corazon
F#m
Es tan facil romper un corazon
D                            E
te alejaras, luego volveras
uh, oh, oh, oh.

A
Es tan facil romper un corazon
F#m
Es tan facil romper un corazon
D                                           E
y es tan tonto el amor que se deja atrapar
                            A
por un corazon que no sabe amar.

(PUENTE)
                   F#m          D              E
E|-12----------12----------12----------------------------12-------|
B|----12-14-------12-14-------12/14-15--14-12----9-10-12----12-14-|

(1)
Puedo gritar, puedo esperar
porque tengo el alma dispuesta
Y aun perdido como un disparo en la obscuridad
sigo adelante buscando respuesta.

(2)
Mientras tanto empujamos el mundo
para verlo rodar y rodar
como chicos pateando un balon
creyendo ser
dos bandos en un callejon.

(CORO 2)
E               A
No me lastimes, porque conmigo
E
habiendo tantos corazones heridos

A
Es tan facil romper un corazon
E|-12---------|
B|----12-14---|

F#m
Es tan facil romper un corazon
E|--12--------|
B|----12-14---|

D                           E
te alejaras, luego volveras    uh, oh, oh, oh.

E|--12-----------------------------12------|
B|-----12/14-15--14-12-----9-10-12----12-14|


A
Es tan facil romper un corazon
E|-12---------|
B|----12-14---|
F#m
Es tan facil romper un corazon
E|--12--------|
B|----12-14---|

D                                           E
y es tan tonto el amor que se deja atrapar
                            A
por un corazon que no sabe amar.
E|--12-----------------------------12------|
B|-----12/14-15--14-12-----9-10-12----12-14|
00:00 / 00:00
Otros videos de esta canción
Repetir
Otros videos de esta canción
Composición de Miguel Mateos
178 vistas
    • ½ Tono
    • A
    • Bb
    • B
    • C
    • Db
    • D
    • Eb
    • E
    • F
    • F#
    • G
    • Ab
  • Agregar a la lista

    0 comentarios

    Ver todos los comentarios

    ¿Lograste tocar?

    0 Tocaron 0 Aún no

    ¡Graba un video tocando Es tan fácil romper un corazón y envíanoslo!

    00:00 / 00:00
    OK