Cifra Club

Triste Canción

Miguel Rios

Cifrado: Principal (guitarra y guitarra eléctrica)
tono: Gm
INTRO
   Gm      C                  Gm      C
E|------------------------------------------------------------------|
B|-2-s-3---4-s-5--6-p-5-------2-s-3---4-s-5-----------6-p-5--2-s-3--|
G|-2-s-3---4-s-5--------5-----2-s-3---4-s-5--------7---------2-s-3--|
D|------------------------5------------------5--8-------------------|
A|------------------------------------------------------------------|
E|------------------------------------------------------------------|
                                  |PM --------->|

Gm                   F
Ella existió sólo en un sueño
Gm                               Dm
él es un poema que el poeta nunca escribió,
Gm                              F
y en la eternidad los dos unieron sus almas
                  Eb         D7sus2        Gm
para darle vida a esta triste canción de amor.



Gm                                  F
Él es como el mar y ella es como la luna
Gm                                Dm
que en las noches de luna llena hacen el amor
Gm                               F
y en la inmensidad los dos unieron sus almas
                  Eb         D7sus2        Gm
para darle vida a esta triste canción de amor,
        Eb         D7sus2        Gm
oooh, a esta triste canción de amor


PUENTE CAMBIANC  DE TONALIDAD
   Bbm               Eb                      Bbm           Eb
E|---------------------------------------------------------------------------|
B|-5-s-6---------6-h-8--9-p-8----9-p-8---5-s-6---------6-h-8--9-p-8----9-p-8-|
G|-5-s-6---------6-h-8--8-----8--8-------5-s-6---------6-h-8--8-----8--8-----|
D|--------6-h-8---------------------------------6-h-8------------------------|
A|---------------------------------------------------------------------------|
E|---------------------------------------------------------------------------|

   Bbm               Eb   F#    F7   Gm
E|--------------------------------------------------|
B|-5-s-6---------6-h-8----7-----6----6-6-6--5-s-6---|
G|-5-s-6---------6-h-8----6-----8----6-6-6--5-s-6---|
D|--------6-h-8-----------8-----7----6-6-6--5-s-6---|
A|--------------------------------------------------|
E|--------------------------------------------------|


Bbm                                Ab
Él es como un Dios y ella es como una virgen
Bbm                         Fm
y los dioses les enseñaron a pecar
Bbm                                   Ab
y en la eternidad los dos unieron sus almas
                  F#         F7           Bbm
para darle vida a esta triste cancion de amor,
      F#         F7           Bbm
oooh, a esta triste canción de amor,
  F#         F7           Bbm
a esta triste canción de amor.

FINAL
   Bbm               Eb                      Bbm           Eb                    Bbm
E|----------------------------------------------------------------------------------|
B|-5-s-6---------6-h-8--9-p-8----9-p-8---5-s-6---------6-h-8--9-p-8----9-p-8--5-s-6-|
G|-5-s-6---------6-h-8--8-----8--8-------5-s-6---------6-h-8--8-----8--8------5-s-6-|
D|--------6-h-8---------------------------------6-h-8-------------------------------|
A|----------------------------------------------------------------------------------|
E|----------------------------------------------------------------------------------|
                 nanananannananananana                 nanananananananananana
00:00 / 00:00
Otros videos de esta canción
Repetir
Otros videos de esta canción
Composición de Alejandro Lora
1 vistas
    • ½ Tono
    • Am
    • Bbm
    • Bm
    • Cm
    • C#m
    • Dm
    • Ebm
    • Em
    • Fm
    • F#m
    • Gm
    • G#m
  • Agregar a la lista

    0 comentarios

    Ver todos los comentarios

    ¿Lograste tocar?

    0 Tocaron 0 Aún no

    ¡Graba un video tocando Triste Canción y envíanoslo!

    00:00 / 00:00
    OK