Cifra Club

Come Closer

Miles Kane

Tablatura: Principal (guitarra)
Tom: G
intro:
E|----------------------------|
B|----------------------------|
G|----------------------------|
D|-4--4--4--4--4--4--4--4-4-4-|Repete......
A|-4--4--4--4--4--4--4--4-4-4-|
E|-2--2--2--2--2--2--2--2-2-2-|


E|---------|
B|---------|
G|-x-11-11-|
D|-x-11-11-| x2
A|-x-9--9--|
E|---------|

verso:
E|----------------------------|
B|----------------------------|
G|----------------------------|
D|-4--4--4--4--4--4--4--4-4-4-|   (2x)
A|-4--4--4--4--4--4--4--4-4-4-|
E|-2--2--2--2--2--2--2--2-2-2-|

E|---------------|
B|---------------|
G|-8-8-8--6-6-6--|
D|-9-9-9--7-7-7--|
A|-9-9-9--7-7-7--|
E|-7-7-7--5-5-5--|

E|--------------------------|
B|--------------------------|
G|--------------------------|
D|-4-4-4-4-4-4--12-12-12-12-|
A|-4-4-4-4-4-4--12-12-12-12-|
E|-2-2-2-2-2-2--10-10-10-10-|

E|------------------------------------|
B|------------------------------------|
G|------------------------------------|
D|-4--4-4-4--9--7--7-7-7--12-12-12-12-|
A|-4--4-4-4--9--7--7-7-7--12-12-12-12-|
E|-2--2-2-2--7--5--5-5-5--10-10-10-10-|

"you're a million miles..."
E|-0-0-0-0-0-0-0-0-|
B|-2-2-2-2-2-2-2-2-|
G|-2-2-2-2-2-2-2-2-|
D|-2-2-2-2-2-2-2-2-|
A|-0-0-0-0-0-0-0-0-|
E|-----------------|

E|-2-2-2-2-2-2-2-2-|
B|-2-2-2-2-3-3-3-3-|
G|-2-2-2-2-2-2-2-2-|
D|-4-4-4-4-0-0-0-0-|
A|-4-4-4-4---------|
E|-----------------|

A parte "Come Closer" é bem parecida com a intro

Refrão:
E|-2--2--2-2-2-2--|
B|-3--3--3-3-3-3--|
G|-2--2--2-2-2-2--|
D|-0--0--0-0-0-0--|
A|----------------|
E|----------------|

E|-2--2--2-2-2-2--|
B|-2--2--2-2-2-2--|
G|-2--2--2-2-2-2--|
D|-4--4--4-4-4-4--|
A|-4--4--4-4-4-4--|
E|----------------|

E|-2--2--2-2-2-2--|
B|-3--3--3-3-3-3--|
G|-2--2--2-2-2-2--|
D|-0--0--0-0-0-0--|
A|----------------|
E|----------------|

E|------------------------------------|
B|------------------------------------|
G|------------------------------------|
D|-4--4-4-4--9--7--7-7-7--12-12-12-12-|   (2x)
A|-4--4-4-4--9--7--7-7-7--12-12-12-12-|
E|-2--2-2-2--7--5--5-5-5--10-10-10-10-|

Solo:
E|-------------------------|
B|-------------------------|
G|---2-4-6-6-6--4-2--2-----|
D|-4----------------4--4-4-|
A|-------------------------|
E|-------------------------|

E|----------------------|
B|----------------------|
G|---2-4-6-6-6--4-2--2--|
D|-4----------------4---|
A|----------------------|
E|----------------------|

E|-----------------|
B|-----------------|
G|-4-4-4-4-4-4~~~--|
D|-----------------|
A|-----------------|
E|-----------------|

E|------------------------------|
B|------------------------------|
G|-4b--2--4-2-4-6-4-2---------2-|
D|--------------------4-4-4-4---|
A|------------------------------|
E|------------------------------|

E|-------------------|
B|----10-12-14-14-14-|
G|-11----------------|
D|-------------------|
A|-------------------|
E|-------------------|

E|-------------------|
B|-12-10----10-------|
G|-------11---11-11--|
D|-------------------|
A|-------------------|
E|-------------------|

E|-------------------|
B|----10-12-14-14-14-|
G|-11----------------|
D|-------------------|
A|-------------------|
E|-------------------|

E|---------------|
B|-12-10----10---|
G|-------11------|
D|---------------|
A|---------------|
E|---------------|

E|-----------------|
B|-12-12-12-12-12--|
G|-----------------|
D|-----------------|
A|-----------------|
E|-----------------|
^^^bend os 12s

E|-------------------|
B|-12br-10-12-10-12--|
G|-------------------|
D|-------------------|
A|-------------------|
E|-------------------|

E|-------------------------------|
B|-14-14-12-10-------------------|
G|-------------11--11--11-11-11--|
D|-------------------------------|
A|-------------------------------|
E|-------------------------------|
bend os 11s

Repete Million miles e come closer depois vai para isso:
E|-2--2--2-2-2-2---- \
B|-2--2--2-2-2-2---- \
G|-2--2--2-2-2-2---- \
D|-4--4--4-4-4-4-\-- \
A|-4--4--4-4-4-4---- \
E|--------------- -- \
                    x5
E|-2--2--2-2-2-2- \  /
B|-3--3--3-3-3-3- \ /
G|-2--2--2-2-2-2- \
D|-0--0--0-0-0-0- \
A|--------------- \
E|--------------- \

Acaba com:
E|-2------------------|
B|-2------------------|
G|-2------------------|
D|-4------------------|
A|-4------------------|
E|-2------------------|
reproducciones 342
Acordes para:
    Composição: Miles Kane Colaboración y revision:
    • gabriel

    0 comentarios

    mostrar más comentarios

    ¿Conseguiste tocar?

    0 tocaron 0 aún no

    ¡Graba un vídeo tocando Come Closer y envianoslo!

    00:00 / 00:00
    outros vídeos desta música
    repetir qualidade Automático
    Outros vídeos desta música
    00:00 / 00:00
    Automático
    OK