Cifra Club

Don´t Forget Who You Are

Miles Kane

Tablatura: Principal (guitarra)
Tom: D
E|-----------------------------------|
B|-----------------------------------|
G|-----------------------------------|
D|-----5-----------------------------|
A|-----5-----------------------------| REPEATED
E|-----3-----------------------------|

  The finest clothes that you can find
E|-----------------------------------|
B|-----------------------------------|
G|-----------------------------------|
D|-----5-----------------------------|
A|-----5-----------------------------|
E|-----3-----------------------------|

 Dressed in my coat
E|--------3--------------------------|
B|--------5--------------------------|
G|--------5--------------------------|
D|--------5--------------------------|(x8)
A|--------3--------------------------|
E|-----------------------------------|

   Im feeling fine
E|---------1--------------------------|
B|---------3--------------------------|
G|---------3--------------------------|(x8)
D|---------3--------------------------|
A|---------1--------------------------|
E|------------------------------------|


E|-----------------------------------|
B|-----------------------------------|
G|-----------------------------------|
D|-------5---------------------------|Repeat all the intro
A|-------5---------------------------|
E|-------3---------------------------|

Chorus
 When we're tongue tied and breathless
E|---------6-------------------------|
B|---------8-------------------------|
G|---------8-------------------------|
D|---------8-------------------------|(downward strumming x8)
A|---------6-------------------------|
E|-----------------------------------|



We won't let our worries

E|---------6-------------------------|
B|---------6-------------------------|
G|---------7-------------------------|
D|---------8-------------------------|(downward strumming x8)
A|---------8-------------------------|
E|---------6-------------------------|


Dictate who we are

E|---------8-------------------------|
B|---------10------------------------|
G|---------10------------------------|(downward strumming x16)(repeat all and the la la la)
D|---------10------------------------|
A|---------8-------------------------|
E|-----------------------------------|


Bridge

Darling

E|---------3-------------------------|
B|---------5-------------------------|
G|---------5-------------------------|
D|---------5-------------------------|(downward strumming x8)
A|---------3-------------------------|
E|-----------------------------------|

Close your eyes

E|---------5-------------------------|
B|---------6-------------------------|
G|---------7-------------------------|
D|---------7-------------------------|(downward strumming x8)
A|---------5-------------------------|
E|-----------------------------------|


And wish for more

E|-----------------------------------|
B|-----------------------------------|
G|-----------------------------------|
D|---------7-------------------------|(downward strumming x8)
A|---------7-------------------------|
E|---------5-------------------------|

Weighing our dreams

E|-----------------------------------|
B|-----------------------------------|
G|-----------------------------------|
D|---------8-------------------------|(downward strumming x8)
A|---------8-------------------------|
E|---------6-------------------------|

Till we're ready

E|-----------------------------------|
B|-----------------------------------|
G|-----------------------------------|
D|---------3-------------------------|(downward strumming x4)
A|---------3-------------------------|
E|---------1-------------------------|

For more

E|---------3-------------------------|
B|---------5-------------------------|
G|---------5-------------------------|
D|---------5-------------------------|(downward strumming x16)
A|---------3-------------------------|
E|-----------------------------------|


Solo

When we're tongue tied and breathless

E|------------------------------------------------|
B|------------------------------------------------|
G|----0----0-2-3-----8-7-5-2-----2-0h2-3--2--0----|(x2)
D|------------------------------------------------|
A|------------------------------------------------|
E|------------------------------------------------|
reproducciones 123
Acordes para:
    Composição: Alexthorp1914 Colaboración y revision:
    • Andres Florez

    0 comentarios

    mostrar más comentarios

    ¿Conseguiste tocar?

    1 tocaron 0 aún no

    ¡Graba un vídeo tocando Don´t Forget Who You Are y envianoslo!

    00:00 / 00:00
    outros vídeos desta música
    repetir qualidade Automático
    Outros vídeos desta música
    00:00 / 00:00
    Automático
    OK