Cifra Club

Inhaler

Miles Kane

Tablatura: Principal (guitarra)
Tom: F#
Baixo
(0:00)-(0:06)
E|-----------------------------------|
B|-----------------------------------|
G|-----------------------------------|
D|------3-2-0--7-6-5--6-7------------|
A|--2-2------------------------------|
E|-----------------------------------|

Guitarra com pouca distorção(riff principal)
(0:07)-(0:18)
E|-----------------------------------|
B|-----------------------------------|
G|-----------------------------------|
D|------3-2-0--7-6-5--6-7------------|
A|--2-2------------------------------|
E|-----------------------------------|

Baixo de novo (0:19)-(0:41)
E|-----------------------------------|
B|-----------------------------------|
G|-----------------------------------|
D|------3-2-0--7-6-5--6-7------------|
A|--2-2------------------------------|
E|-----------------------------------|

Guitarra(0:42)-(0:47)
E|-----------------------------------|
B|-----------------------------------|
G|-----------------------------------|
D|------3-2-0--7-6-5--6-7------------|
A|--2-2------------------------------|
E|-----------------------------------|

(0:48)-(0:53)
E|-----------------------------------|
B|-----------------------------------|
G|-----------------------------------|
D|-5.-2.-----------------------------|
A|-5.-2.-----------------------------|
E|-3.-0.-----------------------------|

A música repete isso até a parte um pouco antes do solo
E|-----------------------------------|
B|-----------------------------------|
G|-----------------------------------|
D|-5.-2.-5.-6.-----------------------|
A|-5.-2.-5.-6.-----------------------|
E|-3.-0.-3.-4.-----------------------|

Solo (2:10)-(2:33)
E|-----------------------------------|
B|-----------------------------------|
G|-11-9-7-9-7-10b---11-9-7-9-11-9-7-9-7-4-7-4-7-4|
D|-----------------------------------|
A|-----------------------------------|
E|-----------------------------------|

E|-----------------------------------|
B|------------12-15-15-17-17-15-14-15|
G|-7-4-7-4-7-4-----------------------|
D|-----------------------------------|
A|-----------------------------------|
E|-----------------------------------|

E|---------------19.--5.-7.-8.-------|
B|-17-17-17--19.---------------------|
G|-----------------------------------|
D|-----------------------------------|
A|-----------------------------------|
E|-----------------------------------|

Inhaler! (2:34)-(2:46)
E|-----------------------------------|
B|-----------------------------------|
G|-----------------------------------|
D|-5.-2.-5.-2.-----------------------|
A|-5.-2.-5.-2.-----------------------|
E|-3.-0.-3.-0.-----------------------|

De volta ao riff principal (2:47)-(2:58)
E|-----------------------------------|
B|-----------------------------------|
G|-----------------------------------|
D|------3-2-0--7-6-5--6-7------------|
A|--2-2------------------------------|
E|-----------------------------------|

Final (2:58)-(2:59)
E|-----------------------------------|
B|-----------------------------------|
G|-----------------------------------|
D|-----------------------------------|
A|--2-2------------------------------|
E|-----------------------------------|
reproducciones 108
Acordes para:
    Composição: Miles Kane / Sean Bonniwell Colaboración y revision:
    • gabriel

    0 comentarios

    mostrar más comentarios

    ¿Conseguiste tocar?

    0 tocaron 0 aún no

    ¡Graba un vídeo tocando Inhaler y envianoslo!

    00:00 / 00:00
    outros vídeos desta música
    repetir qualidade Automático
    Outros vídeos desta música
    00:00 / 00:00
    Automático
    OK