Cifra Club

Butterfly Fly Away

Miley Cyrus

Cifrado: Principal (guitarra y guitarra eléctrica)
Selo Cifra Club: esta cifra foi revisada para atender aos critérios oficiais da nossa Equipe de Qualidade.
tono: Ab (con acordes en la forma de E) Capotraste en 4ª casa
Intro2x
       C9          Bm/D          Asus4         Bm/D
E|-----------------------------------------------------------|
B|-7----7--------7----7--------7----7--------7----7-------5--|
G|-0------0---0--0------0---0--0------0---0--0------0-6-8----|
D|-6--6-----6----0--0-----0----6--6-----6----0--0------------|
A|-7-------------6-------------0-------------6---------------|
E|-----------------------------------------------------------|

Primeira Parte
       C9          Bm/D          Asus4         Bm/D
E|----------------------------------------------------------|
B|-7----7--------7----7--------7----7--------7----7---------|
G|-0------0---0--0------0---0--0------0---0--0------0---0---|
D|-6--6-----6----0--0-----0----6--6-----6----0--0-----0-----|
A|-7-------------6-------------0-------------6--------------|
E|----------------------------------------------------------|
      C9
You tucked me in
Bm/D
Turn out the light
Asus4
Kept me safe
    Bm/D
And sound at night
C9            Bm/D                  Asus4  Bm/D
Little girls depend on things like that

C9
Brushed my teeth
    Bm/D
And combed my hair
Asus4           Bm/D
Had to drive me everywhere
C9              Bm/D                 Aus4 Bm/D
You were always there when I looked back

C9                   Bm/D
You had to do it all alone
       Asus4
Make a live
           Bm/D
And make a hope
C9              Bm/D                 Asus4 Bm/D
Must of been as hard as it could´ve be

           C9                Bm/D
And when I couldn´t sleep at night
              Asus4             Bm/D
Scared things wouldn´t turn out right
Segunda Parte
       C9          Bm/D          Asus4           D
E|-------------------------------------------2------|
B|-7----7--------7----7--------7----7--------3------|
G|-0------0---0--0------0---0--0------0---0--2------|
D|-6--6-----6----0--0-----0----6--6-----6----0-| ----|
A|-7-------------6-------------0--------------------|
E|--------------------------------------------------|
C9                Bm/D
You would hold my hand
            Asus4  D
And sing to me
Refrão
       G     C9    D F#m   Em7     D*   C#m/D    D      D4
E|-3------3------x------x------x------x------2------3------|
B|-3------3------3------3------3------3------3------3------|
G|-0------0------2------0------2------2------2------2------|
D|-0------2------0------2------0------0------0------0-| ----|
A|-2------3------0------2------x------4------x------x------|
E|-3------x------2------0------x------x------x------x------|
Catipillar in the tree
C9
How you wonder who you'll be
G        D  F#m
Can't go far
    Em7       D    C#m/D   D D4 D
But you can always dream

G
Wish you may and wish you might
C9
Don't you worry hold on tight
G        D  F#m
I Promise you
 Em7        D*    C#m/D
There will come a day
D     D4   D   C9
Butterfly fly away
Terceira Parte
       C9          Bm/D          Asus4         Bm/D
E|----------------------------------------------------------|
B|-7----7--------7----7--------7----7--------7----7---------|
G|-0------0---0--0------0---0--0------0---0--0------0---0---|
D|-6--6-----6----0--0-----0----6--6-----6----0--0-----0-----|
A|-7-------------6-------------0-------------6--------------|
E|----------------------------------------------------------|

( C9  Bm/D  Asus4  Bm/D )

   C9         Bm/D
Butterfly fly away
Asus4
Got you're wings
    Bm/D
Now you can stay
C9
Take those dreams
    Bm/D                Asus4 Bm/D
And make them all come true

C9             Bm/D
Butterfly fly away
Asus4               Bm/D
You've been waiting for this day
C9            Bm/D              Aus4 D D4 D
All along you know just what to do

C9
Butterfly
Bm/D
Butterfly
Asus4
Butterfly
D     D4  D    C9  Bm/D  Asus4  Bm/D
Butterfly fly away

( C9  Bm/D  Asus4  Bm/D ) (4x)
Otros videos de esta canción
    236.180 exhibiciones
      • ½ Tono
      • A
      • Bb
      • B
      • C
      • Db
      • D
      • Eb
      • E
      • F
      • F#
      • G
      • Ab
    • Agregar a la lista

    Afinación de cifrado

    Afinador online

      OK