Cifra Club

Part Of Your World

Miley Cyrus

Tablatura: Principal (guitarra)
Tom: D
Intro:
E|-8----10---8----10---4----6----4----6----3----x---1|
A|-6----8----6----8----x----x----x----x----x----3---x|
D|-x----x----x----x----6----8----6----8----5----x---3|
G|-8----10---8----10---x----x----x----x----x----5---x|
B|-x----x----x----x----x----x----x----x----x----x---x|
E|-x----x----x----x----x----x----x----x----x----x---x|

E|-4----6----4----6----3----x----1-1-1-1-1-1-1-1-1-1-1-1-1-1-1-1|
A|-6----8----6----8----5----3----3-3-3-3-3-3-3-3-3-3-3-3-3-3-3-3|
D|-6----8----6----8----5----5----3-3-3-3-3-3-3-3-3-3-3-3-3-3-3-3|
G|-x----x----x----x----x----5----x-x-x-x-x-x-x-x-x-x-x-x-x-x-x-x|
B|-x----x----x----x----x----x----x-x-x-x-x-x-x-x-x-x-x-x-x-x-x-x|
E|-x----x----x----x----x----x----x-x-x-x-x-x-x-x-x-x-x-x-x-x-x-x|


E|-x-----x-----x-----x-----4-----6-----3-----x-----1-----6-----|
A|-6-(x8)5-(x8)1-(x8)3-(x8)6-(x8)8-(x8)5-(x8)3-(x8)3-(x8)8-(x8)|
D|-8-----7-----3-----5-----6-----8-----5-----5-----3-----8-----|
G|-8-----7-----3-----5-----x-----x-----x-----5-----x-----x-----|
B|-x-----x-----x-----x-----x-----x-----x-----x-----x-----x-----|
E|-x-----x-----x-----x-----x-----x-----x-----x-----x-----x-----|

Refrão:
E|-x-----3-----4-----6-----x-----3-----6------|
A|-6-(x5)5-(x7)6-(x5)8-(x7)3-(x5)5-(x7)8-(x12)|
D|-8-----5-----6-----8-----5-----5-----8------|   (2x)
G|-8-----x-----x-----x-----5-----x-----x------|
B|-x-----x-----x-----x-----x-----x-----x------|
E|-x-----x-----x-----x-----x-----x-----x------|

E|-x-----x-----x-----x-----6-----x-----x-----|
A|-6-(x7)4-(x7)3-(x7)2-(x7)8-(x7)5-(x7)6-(x15|
D|-8-----6-----5-----4-----8-----7-----8-----|
G|-8-----6-----5-----4-----x-----7-----8-----|
B|-x-----x-----x-----x-----x-----x-----x-----|
E|-x-----x-----x-----x-----x-----x-----x-----|

Ponte:
E|-4----6----3-----6--x--4----6----3--6--x---1-------8------|
A|-6----8----5-----8--6--6----8----5--8--3---3-------6------|
D|-6----8----5-(x2)8--8--6----8----5--8--5---3-(x20?)6-(x7)-|
G|-x----x----x-----x--8--x----x----x--x--5---x-------x------|
B|-x----x----x-----x--x--x----x----x--x--x---x-------x------|
E|-x----x----x-----x--x--x----x----x--x--x---x-------x------|

Refrão:
E|-x-----3-----4-----6-----x-----3-----6------|
A|-6-(x5)5-(x7)6-(x5)8-(x7)3-(x5)5-(x7)8-(x12)|
D|-8-----5-----6-----8-----5-----5-----8------|
G|-8-----x-----x-----x-----5-----x-----x------|
B|-x-----x-----x-----x-----x-----x-----x------|
E|-x-----x-----x-----x-----x-----x-----x------|

Ponte:
E|-x----x----4----6----3--x--1-------|
A|-6----5----6----8----5--3--3-------|
D|-8----7----6----8----5--5--3-(18?)-|
G|-8----7----x----x----x--5--x-------|
B|-x----x----x----x----x--x--x-------|
E|-x----x----x----x----x--x--x-------|

E|-x-----x-----x-----x-----6-----x-----x-----|
A|-6-(x7)4-(x7)3-(x7)2-(x7)8-(x7)5-(x7)6-(x15|
D|-8-----6-----5-----4-----8-----7-----8-----|
G|-8-----6-----5-----4-----x-----7-----8-----|
B|-x-----x-----x-----x-----x-----x-----x-----|
E|-x-----x-----x-----x-----x-----x-----x-----|

E|-x-----x-----x-----x-----6-----x-----|
A|-6-(x7)4-(x7)3-(x7)2-(x7)8-(x7)5-(x7)|
D|-8-----6-----5-----4--h--8-----7-----|
G|-8-----6-----5-----4--o--x-----7-----|
B|-x-----x-----x-----x--l--x-----x-----|
E|-x-----x-----x-----x--d--x-----x-----|

Outro:
E|-x--|
A|-6--|
D|-8--|   (13x)
G|-8--|
B|-x--|
E|-x--|
reproducciones 184
Acordes para:
    Composição: Alan Menken / Howard Ashman Colaboración y revision:
    • Seth Cohen

    0 comentarios

    mostrar más comentarios

    ¿Conseguiste tocar?

    0 tocaron 0 aún no

    ¡Graba un vídeo tocando Part Of Your World y envianoslo!

    00:00 / 00:00
    outros vídeos desta música
    repetir qualidade Automático
    Outros vídeos desta música
    00:00 / 00:00
    Automático
    OK