Cifra Club

Pumpin Up The Party

Miley Cyrus

Tablatura: Principal (guitarra)
Tom: D
E      G         A         C
Hey...Get up...Get loud...Start pumpin' up the party now!
E      G         A         C
Hey...Get up...Get loud...Start pumpin' up the party now!
E|--------------------------------
B|--------------------------------
G|-7--6-7--6-7--6-7--6-7--6-12----
A|-7--6-7--6-7--6-7--6-7--6-12----
A|-5--4-5--4-5--4-5--4-5--4-10----
E|--------------------------------

E|--------------------------------
B|--------------------------------
G|-7--6-7--6-7--6-7--6-7--6-------
A|-7--6-7--6-7--6-7--6-7--6-3-----
A|-5--4-5--4-5--4-5--4-5--4-3-----
E|--------------------------1-----

E
It's the same old, same same grind
G
But we don't feel we're wasting time
A
Not so bored that we can't find no better way
E
My friends, my kind
G
No one's getting left behind
A
If they did it be a crime that's why we say
C               D          E (Riff)      (Riff)
Let the music start a revolution (revolution)
C               D
No time to play it safe...

E      G         A         C
Hey...Get up...Get loud...Start pumpin' up the party now!
E      G         A         C
Hey...Get up...Get loud...Start pumpin' up the party now!

E
They can't, we can
G
Parents might not understand
A
Havin' fun without a plan, but that's what we do
E
We're all here, let's go!
G
Gotta make this party grow
A
Together we can make it blow right through the roof
C                   D            E (Riff)         (Riff)
The music's gonna start a revolution (revolution)
C              D
It's late to play it safe...

E      G         A         C
Hey...Get up...Get loud...Start pumpin' up the party now!
E      G         A         C
Hey...Get up...Get loud...Start pumpin' up the party now!
Solo:
E|--------------------------
B|-8-7----------------------
G|-----9-7---7-9-11---------
D|---------9----------------(3x)
A|--------------------------
E|--------------------------

E|-------------------------
B|-8-7-----8s10------------
G|-----9-7-----------------
D|-------------------------
A|-------------------------
E|-------------------------

We don't have to paint by numbers
D
Let our voice come out from under
C
Hear it rise, feel the thunder
D
It's time to lose control!

E      G         A         C
Hey...Get up...Get loud...Start pumpin' up the party now!
E      G         A         C
Hey...Get up...Get loud...Start pumpin' up the party now!

E      G         A         C
Hey...Get up...Get loud...Start pumpin' up the party now!
E      G         A         C
Hey...Get up...Get loud...Start pumpin' up the party now!
reproducciones 210
Acordes para:
    Composição: Jamie Houston Colaboración y revision:
    • THIAGO AZEVEDO

    0 comentarios

    mostrar más comentarios

    ¿Conseguiste tocar?

    1 tocaron 0 aún no

    ¡Graba un vídeo tocando Pumpin Up The Party y envianoslo!

    00:00 / 00:00
    outros vídeos desta música
    repetir qualidade Automático
    Outros vídeos desta música
    00:00 / 00:00
    Automático
    OK