Cifra Club

Start All Over

Miley Cyrus

Tablatura: Principal (guitarra)
Tom: F
Guitar Tab
Tabbed by' Renee-lx

Intro
E|---------|
B|---------|
G|---------|
D|---------|
A|-5-5-5-5-| x7 on seventh time, slide down last note
E|-3-3-3-3-|

Verse 1
E|---------------------------------|
B|---------------------------------|
G|---------------------------------|
D|-5-5-X-5-5-5-X-5-5-5-X-5-5-5-3-3-|
A|-5-5-X-5-5-5-X-5-5-5-X-5-5-5-3-3-| x5
E|-3-3-X-3-3-3-X-3-3-3-X-3-3-3-1-1-|

Pre-Chorus
E|-------------------------|
B|-------------------------|
G|-10-10-10-10-10-10-10-10-|
D|-10-10-10-10-10-10-10-10-|
A|-8--8--8--8--8--8--8--8--|
E|-------------------------|

E|---------------------------------|
B|-----------------8-8-8-8-8-8-8-8-|
G|-9-9-9-9-9-9-9-9-7-7-7-7-7-7-7-7-|
D|-9-9-9-9-9-9-9-9-5-5-5-5-5-5-5-5-|
A|-7-7-7-7-7-7-7-7-----------------|
E|---------------------------------|

E|-----------------------------------------|
B|-8-8-8-8-8-8-8-8-------------------------|
G|-7-7-7-7-7-7-7-7-10-10-10-10-10-10-10-10-|
D|-5-5-5-5-5-5-5-5-10-10-10-10-10-10-10-10-|
A|-----------------8--8--8--8--8--8--8--8--|
E|-----------------------------------------|

E|---------------------------------|
B|-----------------8-8-8-8-8-8-8-8-|
G|-9-9-9-9-9-9-9-9-7-7-7-7-7-7-7-7-|
D|-9-9-9-9-9-9-9-9-5-5-5-5-5-5-5-5-|
A|-7-7-7-7-7-7-7-7-----------------|
E|---------------------------------|

E|------------------|
B|-8-8-8-8-8-8-8-8\-|
G|-7-7-7-7-7-7-7-7\-|
D|-5-5-5-5-5-5-5-5\-|
A|------------------|
E|------------------|

Chorus
E|---------------------------------|
B|---------------------------------|
G|-----------------5-5-5-5-5-5-5-5-|
D|-5-5-5-5-5-5-5-5-5-5-5-5-5-5-5-5-|
A|-3-3-3-3-3-3-3-3-3-3-3-3-3-3-3-3-|
E|-3-3-3-3-3-3-3-3-----------------|

E|---------------------------------|
B|---------------------------------|
G|-----------------7-7-7-7-7-7-7-7-|
D|-5-5-5-5-5-5-5-5-7-7-7-7-7-7-7-7-|
A|-5-5-5-5-5-5-5-5-5-5-5-5-5-5-5-5-|
E|-3-3-3-3-3-3-3-3-----------------|

E|-------------------------------|
B|-------------------------------|
G|-8-8-8-8-8-8-8-8--10-10--12-12-|
D|-8-8-8-8-8-8-8-8--10-10--12-12-|
A|-6-6-6-6-6-6-6-6--8--8---10-10-|
E|-------------------------------|

E|---------------------------------|
B|---------------------------------|
G|-----------------5-5-5-5-5-5-5-5-|
D|-5-5-5-5-5-5-5-5-5-5-5-5-5-5-5-5-|
A|-3-3-3-3-3-3-3-3-3-3-3-3-3-3-3-3-|
E|-3-3-3-3-3-3-3-3-----------------|

E|---------------------------------|
B|---------------------------------|
G|-----------------7-7-7-7-7-7-7-7-|
D|-5-5-5-5-5-5-5-5-7-7-7-7-7-7-7-7-|
A|-5-5-5-5-5-5-5-5-5-5-5-5-5-5-5-5-|
E|-3-3-3-3-3-3-3-3-----------------|

E|-------------------------------|
B|-------------------------------|
G|-8-8-8-8-8-8-8-8--10-10--12-12-|
D|-8-8-8-8-8-8-8-8--10-10--12-12-| x2
A|-6-6-6-6-6-6-6-6--8--8---10-10-|
E|-------------------------------|

Verse 2
E|---------------------------------|
B|---------------------------------|
G|---------------------------------|
D|-5-5-X-5-5-5-X-5-5-5-X-5-5-5-3-3-| X6
A|-5-5-X-5-5-5-X-5-5-5-X-5-5-5-3-3-|
E|-3-3-X-3-3-3-X-3-3-3-X-3-3-3-1-1-|

Pre-Chorus
E|-------------------------|
B|-------------------------|
G|-10-10-10-10-10-10-10-10-|
D|-10-10-10-10-10-10-10-10-|
A|-8--8--8--8--8--8--8--8--|
E|-------------------------|

E|---------------------------------|
B|-----------------8-8-8-8-8-8-8-8-|
G|-9-9-9-9-9-9-9-9-7-7-7-7-7-7-7-7-|
D|-9-9-9-9-9-9-9-9-5-5-5-5-5-5-5-5-|
A|-7-7-7-7-7-7-7-7-----------------|
E|---------------------------------|

E|-----------------------------------------|
B|-8-8-8-8-8-8-8-8-------------------------|
G|-7-7-7-7-7-7-7-7-10-10-10-10-10-10-10-10-|
D|-5-5-5-5-5-5-5-5-10-10-10-10-10-10-10-10-|
A|-----------------8--8--8--8--8--8--8--8--|
E|-----------------------------------------|

E|---------------------------------|
B|-----------------8-8-8-8-8-8-8-8-|
G|-9-9-9-9-9-9-9-9-7-7-7-7-7-7-7-7-|
D|-9-9-9-9-9-9-9-9-5-5-5-5-5-5-5-5-|
A|-7-7-7-7-7-7-7-7-----------------|
E|---------------------------------|

E|------------------|
B|-8-8-8-8-8-8-8-8\-|
G|-7-7-7-7-7-7-7-7\-|
D|-5-5-5-5-5-5-5-5\-|
A|------------------|
E|------------------|

Chorus
E|---------------------------------|
B|---------------------------------|
G|-----------------5-5-5-5-5-5-5-5-|
D|-5-5-5-5-5-5-5-5-5-5-5-5-5-5-5-5-|
A|-3-3-3-3-3-3-3-3-3-3-3-3-3-3-3-3-|
E|-3-3-3-3-3-3-3-3-----------------|

E|---------------------------------|
B|---------------------------------|
G|-----------------7-7-7-7-7-7-7-7-|
D|-5-5-5-5-5-5-5-5-7-7-7-7-7-7-7-7-|
A|-5-5-5-5-5-5-5-5-5-5-5-5-5-5-5-5-|
E|-3-3-3-3-3-3-3-3-----------------|

E|-------------------------------|
B|-------------------------------|
G|-8-8-8-8-8-8-8-8--10-10--12-12-|
D|-8-8-8-8-8-8-8-8--10-10--12-12-|
A|-6-6-6-6-6-6-6-6--8--8---10-10-|
E|-------------------------------|

E|---------------------------------|
B|---------------------------------|
G|-----------------5-5-5-5-5-5-5-5-|
D|-5-5-5-5-5-5-5-5-5-5-5-5-5-5-5-5-|
A|-3-3-3-3-3-3-3-3-3-3-3-3-3-3-3-3-|
E|-3-3-3-3-3-3-3-3-----------------|

E|---------------------------------|
B|---------------------------------|
G|-----------------7-7-7-7-7-7-7-7-|
D|-5-5-5-5-5-5-5-5-7-7-7-7-7-7-7-7-|
A|-5-5-5-5-5-5-5-5-5-5-5-5-5-5-5-5-|
E|-3-3-3-3-3-3-3-3-----------------|

E|-------------------------------|
B|-------------------------------|
G|-8-8-8-8-8-8-8-8--10-10--12-12-|
D|-8-8-8-8-8-8-8-8--10-10--12-12-| x2
A|-6-6-6-6-6-6-6-6--8--8---10-10-|
E|-------------------------------|

Bridge
E|-----------------|
B|-----------------|
G|-----------------|
D|-----------------| x7 on seventh time, slide down last note
A|-5-5-5-5-5-5-5-5-|
E|-3-3-3-3-3-3-3-3-|

E|---------------------------------|
B|---------------------------------|
G|---------------------------------|
D|-5-5-X-5-5-5-X-5-5-5-X-5-5-5-3-3-| X6
A|-5-5-X-5-5-5-X-5-5-5-X-5-5-5-3-3-|
E|-3-3-X-3-3-3-X-3-3-3-X-3-3-3-1-1-|

E|-----|
B|-----|
G|-----|
D|-----|
A|-----|
E|-12\-|

Chorus
E|---------------------------------|
B|---------------------------------|
G|-----------------5-5-5-5-5-5-5-5-|
D|-5-5-5-5-5-5-5-5-5-5-5-5-5-5-5-5-|
A|-3-3-3-3-3-3-3-3-3-3-3-3-3-3-3-3-|
E|-3-3-3-3-3-3-3-3-----------------|

E|---------------------------------|
B|---------------------------------|
G|-----------------7-7-7-7-7-7-7-7-|
D|-5-5-5-5-5-5-5-5-7-7-7-7-7-7-7-7-|
A|-5-5-5-5-5-5-5-5-5-5-5-5-5-5-5-5-|
E|-3-3-3-3-3-3-3-3-----------------|

E|-------------------------------|
B|-------------------------------|
G|-8-8-8-8-8-8-8-8--10-10--12-12-|
D|-8-8-8-8-8-8-8-8--10-10--12-12-|
A|-6-6-6-6-6-6-6-6--8--8---10-10-|
E|-------------------------------|

E|---------------------------------|
B|---------------------------------|
G|-----------------5-5-5-5-5-5-5-5-|
D|-5-5-5-5-5-5-5-5-5-5-5-5-5-5-5-5-|
A|-3-3-3-3-3-3-3-3-3-3-3-3-3-3-3-3-|
E|-3-3-3-3-3-3-3-3-----------------|

E|---------------------------------|
B|---------------------------------|
G|-----------------7-7-7-7-7-7-7-7-|
D|-5-5-5-5-5-5-5-5-7-7-7-7-7-7-7-7-|
A|-5-5-5-5-5-5-5-5-5-5-5-5-5-5-5-5-|
E|-3-3-3-3-3-3-3-3-----------------|

E|---------------------------------|
B|---------------------------------|
G|-----------------5-5-5-5-5-5-5-5-|
D|-5-5-5-5-5-5-5-5-5-5-5-5-5-5-5-5-|
A|-3-3-3-3-3-3-3-3-3-3-3-3-3-3-3-3-|
E|-3-3-3-3-3-3-3-3-----------------|

E|---------------------------------|
B|---------------------------------|
G|-----------------7-7-7-7-7-7-7-7-|
D|-5-5-5-5-5-5-5-5-7-7-7-7-7-7-7-7-|
A|-5-5-5-5-5-5-5-5-5-5-5-5-5-5-5-5-|
E|-3-3-3-3-3-3-3-3-----------------|

E|-------------------------------|
B|-------------------------------|
G|-8-8-8-8-8-8-8-8--10-10--12-12-|
D|-8-8-8-8-8-8-8-8--10-10--12-12-|
A|-6-6-6-6-6-6-6-6--8--8---10-10-|
E|-------------------------------|

E|---------------------------------|
B|---------------------------------|
G|-----------------5-5-5-5-5-5-5-5-|
D|-5-5-5-5-5-5-5-5-5-5-5-5-5-5-5-5-|
A|-3-3-3-3-3-3-3-3-3-3-3-3-3-3-3-3-|
E|-3-3-3-3-3-3-3-3-----------------|

E|---------------------------------|
B|---------------------------------|
G|-----------------7-7-7-7-7-7-7-7-|
D|-5-5-5-5-5-5-5-5-7-7-7-7-7-7-7-7-|
A|-5-5-5-5-5-5-5-5-5-5-5-5-5-5-5-5-|
E|-3-3-3-3-3-3-3-3-----------------|

E|-------------------------------|
B|-------------------------------|
G|-8-8-8-8-8-8-8-8--10-10--12-12-|
D|-8-8-8-8-8-8-8-8--10-10--12-12-|
A|-6-6-6-6-6-6-6-6--8--8---10-10-|
E|-------------------------------|

E|---------------------------------|
B|---------------------------------|
G|---------------------------------|
D|-5-5-X-5-5-5-X-5-5-5-X-5-5-5-3-3-| X6
A|-5-5-X-5-5-5-X-5-5-5-X-5-5-5-3-3-|
E|-3-3-X-3-3-3-X-3-3-3-X-3-3-3-1-1-|

E|----|
B|----|
G|----|
D|-5\-|
A|-5\-|
E|-3\-|
reproducciones 272
Acordes para:

    0 comentarios

    mostrar más comentarios

    ¿Conseguiste tocar?

    2 tocaron 0 aún no

    ¡Graba un vídeo tocando Start All Over y envianoslo!

    00:00 / 00:00
    outros vídeos desta música
    repetir qualidade Automático
    Outros vídeos desta música
    00:00 / 00:00
    Automático
    OK