Cifra Club

True Friend

Miley Cyrus

Tablatura: Principal (guitarra)
Tom: C
Well, this is my first tab. I’m not that good in writing this in symbols but I hope 
like it..it sounds pretty good..try listening to the song for the timing..good luck!!

intro

E||------------h3-----------------3--|
B||---------------3----3-------------|
G||--------0------------------0------|
D||------0------------------0--------|
A||----2-----2------2-----2-----2----|
E||--3------------------3------------|

E||------------h3-----------------h3---h3-h3-h3--|
B||---------------3----3-------------------------|
G||--------0------------------0------------------|
D||------0------------------0--------------------|
A||----2-----2------2-----2-----2----------------|
E||--3------------------3------------------------|


verse 1

E||------------h3-----------------h3---h3-h3-h3--|
B||---------------3----3-------------------------|
G||--------0------------------0------------------| x3
D||------0------------------0--------------------|
A||----2-----2------2-----2-----2----------------|
E||--3------------------3------------------------|

E||------------h3-----------------3--|
B||---------------3----3-------------|
G||--------0------------------0------|
D||------0------------------0--------|
A||----2-----2------2-----2-----2----|
E||--3------------------3------------|

E||------------h3-----------------h3---h3-h3-h3--|
B||---------------3----3-------------------------|
G||--------0------------------0------------------| x3
D||------0------------------0--------------------|
A||----2-----2------2-----2-----2----------------|
E||--3------------------3------------------------|

E||------------h3-----------------3--|
B||---------------3----3-------------|
G||--------0------------------0------|
D||------0------------------0--------|
A||----2-----2------2-----2-----2----|
E||--3------------------3------------|


chorus 1

E||----------------------------------------------------|
B||--x--x-x-x--x--x-x-x--x-x--x--x-x-x--x--x-x-x--x-x--|
G||--7--7-7-7--7--7-7-7--7-7--5--5-5-5--5--5-5-5--5-5--|
D||--7--7-7-7--7--7-7-7--7-7--5--5-5-5--5--5-5-5--5-5--|
A||--5--5-5-5--5--5-5-5--5-5--5--3-3-3--3--3-3-3--3-3--|
E||----------------------------------------------------|

E||----------------------------------------------------|
B||--x--x-x-x--x--x-x-x--x-x--x--x-x-x--x--x-x-x--x-x--|
G||--7--7-7-7--7--7-7-7--7-7--5--5-5-5--3--3-3-3--3-3--|
D||--7--7-7-7--7--7-7-7--7-7--5--5-5-5--3--3-3-3--3-3--|
A||--5--5-5-5--5--5-5-5--5-5--3--3-3-3--1--1-1-1--1-1--|
E||----------------------------------------------------|

E||----------------------------------------------------|
B||--x--x-x-x--x--x-x-x--x-x--x--x-x-x--x--x-x-x--x-x--|
G||--7--7-7-7--7--7-7-7--7-7--5--5-5-5--5--5-5-5--5-5--|
D||--7--7-7-7--7--7-7-7--7-7--5--5-5-5--5--5-5-5--5-5--|
A||--5--5-5-5--5--5-5-5--5-5--5--3-3-3--3--3-3-3--3-3--|
E||----------------------------------------------------|

E||------------------------------|
B||--x--x-x-x--x--x-x-x--x-x--x--|
G||--9--9-9-9--7--7-7-7--7-7--5--|
D||--9--9-9-9--7--7-7-7--7-7--5--|
A||--7--7-7-7--5--5-5-5--5-5--5--|
E||------------------------------|

E||------------h3-----------------3--|
B||---------------3----3-------------|
G||--------0------------------0------|
D||------0------------------0--------|
A||----2-----2------2-----2-----2----|
E||--3------------------3------------|


verse 2

E||------------h3-----------------h3---h3-h3-h3--|
B||---------------3----3-------------------------|
G||--------0------------------0------------------| x3
D||------0------------------0--------------------|
A||----2-----2------2-----2-----2----------------|
E||--3------------------3------------------------|

E||------------h3-----------------3--|
B||---------------3----3-------------|
G||--------0------------------0------|
D||------0------------------0--------|
A||----2-----2------2-----2-----2----|
E||--3------------------3------------|


chorus 2

E||----------------------------------------------------|
B||--x--x-x-x--x--x-x-x--x-x--x--x-x-x--x--x-x-x--x-x--|
G||--7--7-7-7--7--7-7-7--7-7--5--5-5-5--5--5-5-5--5-5--|
D||--7--7-7-7--7--7-7-7--7-7--5--5-5-5--5--5-5-5--5-5--|
A||--5--5-5-5--5--5-5-5--5-5--5--3-3-3--3--3-3-3--3-3--|
E||----------------------------------------------------|

E||----------------------------------------------------|
B||--x--x-x-x--x--x-x-x--x-x--x--x-x-x--x--x-x-x--x-x--|
G||--7--7-7-7--7--7-7-7--7-7--5--5-5-5--3--3-3-3--3-3--|
D||--7--7-7-7--7--7-7-7--7-7--5--5-5-5--3--3-3-3--3-3--|
A||--5--5-5-5--5--5-5-5--5-5--3--3-3-3--1--1-1-1--1-1--|
E||----------------------------------------------------|

E||----------------------------------------------------|
B||--x--x-x-x--x--x-x-x--x-x--x--x-x-x--x--x-x-x--x-x--|
G||--7--7-7-7--7--7-7-7--7-7--5--5-5-5--5--5-5-5--5-5--|
D||--7--7-7-7--7--7-7-7--7-7--5--5-5-5--5--5-5-5--5-5--|
A||--5--5-5-5--5--5-5-5--5-5--5--3-3-3--3--3-3-3--3-3--|
E||----------------------------------------------------|

E||-------------------------------------|
B||--x--x-x-x--x--x-x-x--x-x------------|
G||--9--9-9-9--7--7-7-7--7-7--h5-h5-h5--|
D||--9--9-9-9--7--7-7-7--7-7--h5-h5-h5--|
A||--7--7-7-7--5--5-5-5--5-5--h5-h5-h5--|
E||-------------------------------------|


i’m still learning how to play this part but for the mean time, just use * it a 
fast to catch up the measure..listen to the song and you'll know how:

E||--6---------6---------6---------6-----------------|
B||----6---6-----6---6-----6---6-----6---6------6----|
G||------6---6-----6---6-----6---6-----6---6------6--|
D||--------------------------------------------------|
A||--------------------------------------------------|
E||--------------------------------------------------|

E||--4---------4---------4---------4-----------------|
B||----4---4-----4---4-----4---4-----4---4------4----|
G||------4---4-----4---4-----4---4-----4---4------4--|
D||--------------------------------------------------|
A||--------------------------------------------------|
E||--------------------------------------------------|

E||--6---------6---------6---------6-----------------|
B||----6---6-----6---6-----6---6-----6---6------6----|
G||------6---6-----6---6-----6---6-----6---6------6--|
D||--------------------------------------------------|
A||--------------------------------------------------|
E||--------------------------------------------------|


E||--4---------4--------------------------------------|
B||----4---4-----4---4--------------------------------|
G||------4---4-----4---4----5--5-5--5-5--5-5--5-5--5--|
D||-------------------------5--5-5--5-5--5-5--5-5--5--|
A||-------------------------3--3-3--3-3--3-3--3-3--3--|
E||---------------------------------------------------|

chorus 3

E||-----------------------------|
B||-----------------------------|
G||--------0-------------0--0---|
D||------0---0------0--0--------|
A||--2---------2--2-------------|
E||-----------------------------|
                                    2x
E||-----------------------------|
B||-----------------------------|
G||--------0-------------0------|
D||------0---0------0--0--------|
A||--2---------2--2----------2--|
E||-----------------------------|

E||----------------------------------------------------|
B||--x--x-x-x--x--x-x-x--x-x--x--x-x-x--x--x-x-x--x-x--|
G||--7--7-7-7--7--7-7-7--7-7--5--5-5-5--5--5-5-5--5-5--|
D||--7--7-7-7--7--7-7-7--7-7--5--5-5-5--5--5-5-5--5-5--|
A||--5--5-5-5--5--5-5-5--5-5--5--3-3-3--3--3-3-3--3-3--|
E||----------------------------------------------------|

E||----------------------------------------------------|
B||--x--x-x-x--x--x-x-x--x-x--x--x-x-x--x--x-x-x--x-x--|
G||--9--9-9-9--7--7-7-7--7-7--5--5-5-5--5--5-5-5--5-5--|
D||--9--9-9-9--7--7-7-7--7-7--5--5-5-5--5--5-5-5--5-5--|
A||--7--7-7-7--5--5-5-5--5-5--3--3-3-3--3--3-3-3--3-3--|
E||----------------------------------------------------|

E||----------------------------------------------------|
B||--x--x-x-x--x--x-x-x--x-x--x--x-x-x--x--x-x-x--x-x--|
G||--7--7-7-7--7--7-7-7--7-7--5--5-5-5--5--5-5-5--5-5--|
D||--7--7-7-7--7--7-7-7--7-7--5--5-5-5--5--5-5-5--5-5--|
A||--5--5-5-5--5--5-5-5--5-5--5--3-3-3--3--3-3-3--3-3--|
E||----------------------------------------------------|

E||----------------------------------------------------|
B||--x--x-x-x--x--x-x-x--x-x--x--x-x-x--x--x-x-x--x-x--|
G||--7--7-7-7--7--7-7-7--7-7--5--5-5-5--3--3-3-3--3-3--|
D||--7--7-7-7--7--7-7-7--7-7--5--5-5-5--3--3-3-3--3-3--|
A||--5--5-5-5--5--5-5-5--5-5--3--3-3-3--1--1-1-1--1-1--|
E||----------------------------------------------------|

E||----------------------------------------------------|
B||--x--x-x-x--x--x-x-x--x-x--x--x-x-x--x--x-x-x--x-x--|
G||--7--7-7-7--7--7-7-7--7-7--5--5-5-5--5--5-5-5--5-5--|
D||--7--7-7-7--7--7-7-7--7-7--5--5-5-5--5--5-5-5--5-5--|
A||--5--5-5-5--5--5-5-5--5-5--5--3-3-3--3--3-3-3--3-3--|
E||----------------------------------------------------|

E||------------------------------|
B||--x--x-x-x--x--x-x-x--x-x--x--|
G||--9--9-9-9--7--7-7-7--7-7--5--|
D||--9--9-9-9--7--7-7-7--7-7--5--|
A||--7--7-7-7--5--5-5-5--5-5--5--|
E||------------------------------|

E||------------h3-----------------3--|
B||---------------3----3-------------|
G||--------0------------------0------| 2x
D||------0------------------0--------|
A||----2-----2------2-----2-----2----|
E||--3------------------3------------|

E||--0--|
B||--0--|
G||--0--|
D||--0--|
A||--0--|
E||--0--|

It’s not that perfect but I think it would work..i’ll make a better one when I have 
fun..(n_n)
reproducciones 772
Acordes para:
    Composição: Jeannie Lurie

    0 comentarios

    mostrar más comentarios

    ¿Conseguiste tocar?

    1 tocaron 0 aún no

    ¡Graba un vídeo tocando True Friend y envianoslo!

    00:00 / 00:00
    outros vídeos desta música
    repetir qualidade Automático
    Outros vídeos desta música
    00:00 / 00:00
    Automático
    OK