Cifra Club

Younger Now

Miley Cyrus

Tablatura: Principal (guitarra)
Tom: A
[Intro]

E|-----------------------------------------------------|
B|-----------------------------------------------------|
G|-----------------------------------------------------|
D|-----------------------------------------------------|
A|-----------------------------------------------------|
E|--5--5-4-5-4-0---------------------------------------|

 [Intro]
Feels like I just woke up
Like all this time I've been asleep
Even though it's not who I am
I'm not afraid of who I used to be
 
 F#m     C#m      E
No one stays the same (oh, oh)
      F#m      C#m          E
You know what goes up must come down (oh, oh)
  F#m         C#m          E
Change is a thing you can count on (oh, oh)
   F#m          C#m     E
I feel so much younger now (oh, oh)

 [Intro]
Feels like I've been living in a dream
But never make it to the end
My eyes open when they feel the light
It's always right before I'm about to scream

 F#m     C#m      E
No one stays the same (oh, oh)
      F#m      C#m          E
You know what goes up must come down (oh, oh)
  F#m         C#m          E
Change is a thing you can count on (oh, oh)
   F#m          C#m     E
I feel so much younger now (oh, oh)

[Passagem]  A  E

E|--5-4-2-4---5-4-2-0----------------------------------|
B|-----------------------------------------------------|
G|-----------------------------------------------------|
D|-----------------------------------------------------|
A|--0--------------------------------------------------|
E|------------0----------------------------------------|

What goes up must come down
What goes up must come down
What goes up must come down
What goes up must come down (yeah)

 F#m     C#m      E
No one stays the same (oh, oh)
      F#m      C#m            E
You know what goes comes back around (oh, oh)
  F#m         C#m          E
Change is a thing you can count on (oh, oh)
   F#m          C#m     E
I feel so much younger now (oh, oh)
   F#m          C#m     E
I feel so much younger now (oh, oh)
   F#m          C#m     E
I feel so much younger now (oh, oh)
reproducciones 349
Acordes para:
    Colaboración y revision:
    • Marcos Paulo

    0 comentarios

    mostrar más comentarios

    ¿Conseguiste tocar?

    2 tocaram 1 aún no

    Grave um vídeo tocando Younger Now e mande pra gente!

    00:00 / 00:00
    outros vídeos desta música
    repetir qualidade Automático
    Outros vídeos desta música
    00:00 / 00:00
    Automático
    OK