Cifra Club

Aprenda

Ainda Ontem Chorei de Saudade

Milionário e José Rico

Tablatura: Principal (guitarra)
tono: C
[Intro] C  Dm  G7  C  G7 
        C  C7  F  C  G7  C

                 Am                 Dm
Você me pede na carta que eu desapareça
    G7                                         C    G7
Que eu nunca mais te procure, prá sempre te esqueça
 C                  Am                  Dm
Posso fazer sua vontade, atender seu pedido
 G7                                    C   G7
Mas te esquecer é bobagem, é tempo perdido
 C                        G7
Ainda ontem chorei de saudade
                  Dm            C   G7
Relendo a carta, sentindo o perfume
 C                                   G7
Mas que fazer com essa dor que me invade
 Dm       F           G7        C   G7
Mato esse amor ou me mata, o ciúme

[Solo]

E|---3---5---7---8-7------------------------|
B|-5---5---5---5-----6----------------------|
G|------------------------------------------|
D|------------------------------------------|
A|------------------------------------------|
E|------------------------------------------|

E|---1---3---5---8-7------------------------|
B|-3---3---3---3-----5--8-------------------|
G|------------------------------------------|
D|------------------------------------------|
A|------------------------------------------|
E|------------------------------------------|

E|---3---5---6---8---12-10-5----------------|
B|-5---5---5---5---5------------------------|
G|------------------------------------------|
D|------------------------------------------|
A|------------------------------------------|
E|------------------------------------------|

E|-5-7-8-0-3-5-3-10-7-5-7-8-----------------|
B|------------------------------------------|
G|------------------------------------------|
D|------------------------------------------|
A|------------------------------------------|
E|------------------------------------------|

C                  Am                   Dm
O dia inteiro te odeio te busco e te caço
 G7                                           C    G7
Mas em meu sonho de noite eu te beijo e te abraço
 C                   Am                       Dm
Porque os sonho são meus ninguém rouba e nem tira
 G7                                       C   G7
Melhor sonhar na verdade, que amar na mentira
Composição de Moacir Franco
Colaboración y revision:
2.194 reproducciones
    • ½ Tono
    • A
    • Bb
    • B
    • C
    • Db
    • D
    • Eb
    • E
    • F
    • F#
    • G
    • Ab
  • Adicionar à lista

    0 comentarios

    Ver todos os comentários

    ¿Conseguiste tocar?

    17 Tocaram 4 Ainda não

    Grave um vídeo tocando Ainda Ontem Chorei de Saudade e nos envie!

    00:00 / 00:00
    outros vídeos desta música
    repetir qualidade Automático
    Outros vídeos desta música
    00:00 / 00:00
    Automático
    OK